Переделанные песни (пародии) - Rammstein "Du Hast", аккорды

Прокрутка
Тональность
Шрифт
100
Куплет:
e|-----------------------------------
B|-----------------------------------
G|-----------------------------------
D|-2-2-2-2-7-7-7-7-10-10-9-9-2-2-2-2-
A|-2-2-2-2-7-7-7-7-10-10-9-9-2-2-2-2-
E|-0-0-0-0-5-5-5-5-8--8--7-7-0-0-0-0-
 
Я
Дышу
"МОМЕНТОМ"

Я
Дышу
"МОМЕНТОМ"

Я
Дышу
"МОМЕНТОМ"

Я
Дышу
"МОМЕНТОМ"

Пред-припев:
|---------
|---------      
|--------- 
|-2-2-2-2-
|-2-2-2-2-
|-0-0-0-0-

Дышу я весь день,
Дышу я всю ночь,
Дышу я всегда
И сплю лишь иногда

Припев:
|-------------------
|------------------- 
|-------------------
|-------------------
|-10-10-9-9-2-2-2-2-
|-8--8--7-7-0-0-0-0-

Выдавлю "МОМЕНТ" в пакетик,
Завяжу его по-туже

КАЙФ!
КАЙФ!

Натяну пакет на морду,
И вздохну я полной грудью

КАЙФ!
КАЙФ!

Куплет:
e|-----------------------------------
B|-----------------------------------
G|-----------------------------------
D|-2-2-2-2-7-7-7-7-10-10-9-9-2-2-2-2-
A|-2-2-2-2-7-7-7-7-10-10-9-9-2-2-2-2-
E|-0-0-0-0-5-5-5-5-8--8--7-7-0-0-0-0-

Я
Дышу
"МОМЕНТОМ"

Я
Дышу
"МОМЕНТОМ"

Припев:
|-------------------
|------------------- 
|-------------------
|-------------------
|-10-10-9-9-2-2-2-2-
|-8--8--7-7-0-0-0-0-

Натяну пакет на морду,
И вздохну я полной грудью

КАЙФ!
КАЙФ!

Пусть уже плюю я кровью
"МОМЕНТ"ально он накроет
КАЙФ!
КАЙФ!

Натяну пакет на морду
И вздохну я...
КАЙФ!
КАЙФ!
 
 

Видео