Песни из аниме - God Knows from The Melancholy of Haruhi Suzumiya на русском, аккорды новинка

Прокрутка
Тональность
Шрифт
100
e|16-0-0-14-0-0-12-0-0-14--0-12-0-14-0|-16-0-14-0-0-12-0-0-14--0-12-0-11-0|
B|-----------------------------------|------------------------------------|
G|-----------------------------------|------------------------------------|
D|-----------------------------------|------------------------------------|
A|-----------------------------------|------------------------------------|
E|-----------------------------------|------------------------------------|

e|-11⏝12⏝11--------11⏝12-------------|16⏝14⏝12-16⏝14⏝12-16⏝14⏝12-16⏝14⏝12-|
B|----------12--14-------------------|------------------------------------|
G|-----------------------------------|------------------------------------|
D|-----------------------------------|------------------------------------|
A|-----------------------------------|------------------------------------|
E|-----------------------------------|------------------------------------|

e|-16⏝14⏝12----------16⏝14⏝12---------16⏝14⏝12----------------------------
B|----------16⏝14⏝12----------16⏝14⏝12---------16⏝14⏝12-16⏝14⏝12-0--------|
G|-----------------------------------|------------------------------------|
D|-----------------------------------|------------------------------------|
A|-----------------------------------|------------------------------------|
E|-----------------------------------|------------------------------------|

e|-19-0-19-0-19-0-16-0-14-16---------|14-0-12-0-14-0-1111-12-14-----------
B|-----------------------------------|------------------------------------|
G|-----------------------------------|------------------------------------|
D|-----------------------------------|------------------------------------|
A|-----------------------------------|------------------------------------|
E|-----------------------------------|------------------------------------|

e|-16⏝14⏝13⏝16⏝14⏝13⏝16⏝14⏝13⏝16⏝14⏝13--13--(13)--------------------------
B|-----------------------------------|------------14----------------------|
G|-----------------------------------|------------------------------------|
D|-----------------------------------|------------------------------------|
A|-----------------------------------|------------------------------------|
E|-----------------------------------|------------------------------------|

e|--------------------0--------------|------------------------------------
B|------9(9)-9--10-9--9--------------|--5-5-5-5-5-5-----------------------|
G|-----------------------------------|--6-6-6-6-6-6-8-8-8-9-9-9-----------|
D|-----------------------------------|--------------9-9-9-----------------|
A|-----------------------------------|------------------------------------|
E|-----------------------------------|------------------------------------|

C#m                       B
Сердце меня,опять упорно гонит к тебе
A         B             E
Ты прости,я не могу не быть собой!
C#m                         B
Мне твою боль не разделить увы никогда,
A       B               E
И уходя ни слова ты не скажешь мне.
 
A                     G#m
Я замру, но ты ко мне спиной повернёшься.
  F#m              A
Я слезы проглочу, и снова окажусь
       G#
on the lonely rail !
 
Chorus 
                A
        Я буду всюду и навеки
         B             G#m            C#m
        Рядом с тобою пусть этот мир обернется вечной тьмою,
        F#m     G#m          C#m     B
        Ты мне осветишь путь далёкой звездой,
              A
        Сумею я не убояться 
         B                    G#m      C#m
        страхов и сомнений и пройду я долиной смертной тени
        F#m      G#m           A
        My way-лететь с тобою рядом
        B           C#m
        Влюбленных-god bless...
 
 Instrumental
 
      A  B  G#m  C#m
      A  B  C#m
      (x2)
 
Verse
C#m                  B
Остался только ты, осталась только я
             A       B            E
Исчезли все вокруг исчезли безвозвратно.
C#m                 B
Хрустальную мечту, прекрасную мечту
         A             B        E
Упрямо создаю, я из осколков любви!!!
 
Chorus    
                        A       
        И все же!Я буду! Всюду и навеки
          B       G#m            C#m                          
    Рядом с тобою пусть этот мир обернется вечной тьмою
        F#m      G#m         C#m    B
       Ты мне осветишь путь далёкой звездой
              A
        Сумею я не убояться
          B              G#m          C#m
       страхов и сомнений и пройду я долиной смертной тени
        F#m       G#m           A    
        My way-лететь с тобою рядом
          B         C#m
      Возлбленных-god bless...

Outro 
      B  C#  Bbm  D#m
      B  C#  D#m
      (x2)
      D#m 
 
 
Свернуть Распечатать

Видео