Запрещают песни Цоя, Агата Кристи, Наутилус Помпилиус, Зиверт
Отвечаем в отдельной теме

Песни из аниме - Death Note - L's Theme, аккорды

Прокрутка
Тональность
Шрифт
100
e------------------7---------------------------7--------------
B---8---10---7-8-----10-8-7-----8---10---7-8-----10-8-7-------
G-----9----9-----9----------9-7---9----9-----9----------9-7-9-
D-------------------------------------------------------------
A-------------------------------------------------------------
E-------------------------------------------------------------

e-------------------------------------------------------------
B---8-8--8-8--7--8-8-8-8--8-7----8-8--8-8--7--8-8-8-8-10------
G---9-9--9-9--9--9-9-9-9--9-9----9-9--9-9--9--9-9-9-9-9-------
D---9-9--9-9--9--9-9-9-9--9-9----9-9--9-9--9--9-9-9-9-9-------
A-------------------------------------------------------------
E-------------------------------------------------------------

e-----------------5---------------------------5---------------
B---6---8---5-6-----8-6-5-------6---8---5-6-----8-6-5---------
G-----7---7-----7---------7-5-7---7---7-----7---------7-5-7---
D-------------------------------------------------------------
A-------------------------------------------------------------
E-------------------------------------------------------------

e-------------------------------------------------------------
B---8-8--8-8--7--8-8-8-8--10-10----8-8--8-8--7--8-8-8-8-7-----
G---9-9--9-9--9--9-9-9-9--9--9-----9-9--9-9--9--9-9-9-9-9-----
D---9-9--9-9--9--9-9-9-9--9--9-----9-9--9-9--9--9-9-9-9-9-----
A-------------------------------------------------------------
E-------------------------------------------------------------

e-----------------5---------------------------5---------------
B---6---8---5-6-----8-6-5-------6---8---5-6-----8-6-5---------
G-----7---7-----7---------7-5-7---7---7-----7---------7-5-7---
D-------------------------------------------------------------
A-------------------------------------------------------------
E-------------------------------------------------------------

e-------------------------------------------------------------
B-------------------------------------------------------------
G---5-5--5-5--4--5-5-5-5--7-7----5-5--5-5--4--5-5-5-5-4-------
D---7-7--7-7--7--7-7-7-7--7-7----7-7--7-7--7--7-7-7-7-7-------
A---7-7--7-7--7--7-7-7-7--7-7----7-7--7-7--7--7-7-7-7-7-------
E-------------------------------------------------------------
 
 
Свернуть Распечатать

Аппликатуры аккордов

помощники
21,763 61 14.07.2021