Запрещают песни Цоя, Агата Кристи, Наутилус Помпилиус, Зиверт
Отвечаем в отдельной теме

Песни из аниме - Sadness (One Punch Man), аккорды

Прокрутка
Тональность
Шрифт
100
1|----------------------------------0-2---2/3-2-0-------------------------------------------0-2---2/3-0-
2|-------3/5--3-----3-2/3-0---3---3-----3---------3-2-3/5--------3/5--3-----3-2/3-0---3---3-----3-------
3|-----2----------4---------0---0-------2----------------------2----------4---------0---0-------2-------  2 раза
4|-2/4----------4---------------------0-------0------------2/4----------4---------------------0---------
5|------------2-------------------------------------------------------2-------------------------------0-
6|------------------------3-------------------------------------------------------3---------------------

1|------------------------------------------------------------------------------------------------------
2|---------3-----3----------3-----3----------3-----3----------3-----3----------3-----3----------3-----3-
3|-----0-------0--------0-------0--------0-------0--------0-------0--------0-------0--------0-------0---
4|---4---4---4--------4---4---4--------4---4---4--------4---4---4--------4---4---4--------4---4---4-----
5|-2----------------2----------------0----------------0-------------------------------------------------
6|---------------------------------------------------------------------3----------------3---------------

1|----------------------------------
2|---------3-----3----------3-----3-
3|-----0-------0--------0-------0---
4|---4---4---4--------4---4---4-----
5|----------------------------------
6|-2----------------2---------------

1|--------------------------------------------------------------------------------------------------------
2|---------3-----3----------3-----3----------3-----3----------3-----3----------3-----3----------3-----3---
3|-----0-------0--------0-------0--------0-------0--------0-------0--------0-------0--------0-------0---3-
4|---4---4---4--------4---4---4--------4---4---4--------4---4---4--------4---4---4--------4---4---4-----4-
5|-2----------------2----------------0----------------0-------------------------------------------------4-
6|---------------------------------------------------------------------3----------------3---------------2-

1|----------------------------------0-2---2/3-2-0-------------------------------------------0-2---2/3-0--
2|-------3/5--3-----3-2/3-0---3---3-----3---------3-2-3/5--------3/5--3-----3-2/3-0---3---3-----3--------
3|-----2----------4---------0---0-------2----------------------2----------4---------0---0-------2--------
4|-2/4----------4---------------------0-------0------------2/4----------4---------------------0----------
5|------------2-------------------------------------------------------2-------------------------------0--
6|------------------------3-------------------------------------------------------3----------------------
 
 
Свернуть Распечатать

Аппликатуры аккордов

помощники
2,303 1 11.09.2021

Видео