Песни из кино и мультфильмов - Музыка из к/ф "Крестный отец", аккорды

Прокрутка
Тональность
Шрифт
100
ПЕРВАЯ ЧАСТЬ
1----0--3--2--0--3--0--2--0-----------------------0|---0--3--2--0--3--0--2--0-------|
2--0-------------------------1--1/3--0-----0-------|-0-------------------------0----|
3---------------------------------------0------0---|---------------------1--------3-|
4--------------------------------------------------|--------------------------------|
5----------------------0---------------------------|--------------------------------|
6----------0-------------------------0-------------|---------0----------------------|
Am
1--------------0--------0--2------------------|----0---------------------------------
2--------1-----------1-----------1-----------1|-4--------0--------------3--1--0--3--1
3--2--------2-----2-----------2-----2-----2---|-------0-----0--------0---------------
4-----2--------------------------------2------|----------------2--2------------------
5--0-----------------------0------------------|----------------------------0---------
6---------------------------------------------|----0---------------------------------
                             ВТ.Ч.     Dm
1---------------------------|-0--0--------------0--2--0---|--------------------------
2--1--0--0-----------0------|-------4--3-----3-----------3|-1--0-----0--------0--3--0
3-----------------0-----0---|-------------2---------------|-------0-----0------------
4--1--------1--2-----------2|----------0------------------|----------------0---------
5---------------------------|-----------------------------|--------------------------
6--------------0------------|-----------------------------|----3---------------------
Fmaj                     H7 (без мизинца)
1-----------------------|------------------   ИГРАЕМ ДО КОНЦА,ПОТОМ ПОВТОР ДО 2 ЧАСТИ
2-------------1-----1---|-0-----0----------
3-2-----2--------2-----3|----2-----2-------
4-3--3-----3------------|-------------1----
5-----------------------|-2----------------
6-----------------------|------------------

Комментарий автора:

/ - СЛАЙД
 
 
Свернуть Распечатать

Видео