Песни из кино и мультфильмов - Suicide is Painless (OST "MASH"), аккорды

Прокрутка
Тональность
Шрифт
100
-------------------------------5--3--2--3--2--3--2--0---
--------3--2---------3--2-------------------------------
------4------------4------------------------------------
----4------------4--------------------------------------
--2------------2----------------------------------------
--------------------------------------------------------

--0--2--0--2--0--2--0----------2--0-----0-----0---------
-----------------------3-------------3-----3-----3--2---
--------------------------------------------------------
--------------------------------------------------------
--------------------------------------------------------
--------------------------------------------------------

--------------------------0-
--3--2--0--2--0--2--0--3----
[----------------------------] 
----------------------------
----------------------------
----------------------------
 
 

Видео