Песни из кино и мультфильмов - Mortal Combat, аккорды

Прокрутка
Тональность
Шрифт
100
1 партия: x2
e---------------------------0---3---0---------------------------
B---0-0-3-0-5-0-7-5-----3-3---3---3---3---------1---3---5-3-----
G-------------------------------------------5-5---5---5---------
D---------------------------------------------------------------
A---------------------------------------------------------------
E---------------------------------------------------------------

e---------------------------------------------------------------
B-------0---3---3-1---------------------------------------------
G---3-3---3---3-------------------------------------------------
D---------------------------------------------------------------
A---------------------------------------------------------------
E---------------------------------------------------------------

2 партия: x2
e---------------------------------------------------------------
B---0-0-0-0---3---0-0-0-0-----0-0-0-0---3---0-0-0--0-0--0-0-----
G-----------5-------------5-1---------5-------------------------
D---------------------------------------------------------------
A---------------------------------------------------------------
E---------------------------------------------------------------

3 партия:
e---------------------------------------------------------------
B---0-7-0-3-0-1-0-3--0-1-0-----0-7-0-3-0-1-0-3--0-1-0-----------
G---------------------------------------------------------------
D---------------------------------------------------------------
A---------------------------------------------------------------
E---------------------------------------------------------------

e---------------------------------------------------------------
B---0-7-0-3-0-1-0-3--0-1-0-----0-7-0-3-0-1-0-3--0---------------
G---------------------------------------------------------------
D---------------------------------------------------------------
A---------------------------------------------------------------
E---------------------------------------------------------------

e---------------------------------------------------------------
B---0-7-0-3-0-1-0-3--0-1-0-----0-7-0-3-0-1-0-3--0-1-0-----------
G---------------------------------------------------------------
D---------------------------------------------------------------
A---------------------------------------------------------------
E---------------------------------------------------------------

e---------------------------------------------------------------
B---0-7-0-3-0-1-0-3--0-1-0--------------------------------------
G---------------------------------------------------------------
D------------------------------0-1-1--0-1-1--0-1-1--0-1-1-------
A---------------------------------------------------------------
E---------------------------------------------------------------
 
 
Свернуть Распечатать

Видео