Песни из кино и мультфильмов - Прощание славянки, аккорды

Прокрутка
Тональность
Шрифт
100
   C(III)         E(VII)          Am(V)
1|--------0-----0-----0-----0--------------0-----0-----0--------0-----0-----0--------0-----0-----0-
2|--------1-----1-----1-----1--------------0-----0-----0--------0-----0-----0--------1-----1-----1-
3|--------0-----0-----0-----0--------------1-----1-----1--------1-----1-----1--------2-----2-----2-
4|-------------------------------------------------------------------------------------------------
5|-3----3-----3-----3--0--2------2-----2---------------2-----2------2-2-3-2-0--0--0----------------
6|----0---------------------------------------------------------0----------------------------------
 
   Am(V)          Dm(V)    -/   E(VII)        Am(V)
1|-------0-----0-----0--------------------1-----1----------0-----0-----0-------------0-----0-----0--
2|------1-----1-----1--------------------3-----3----------0-----0-----0-------------1-----1-----1---
3|-2----2--------------------2-----2----------------1--1--1-------------2-----2-----2---------------
4|--------------------------0-----0------0-0-2-3-2--------------------------------------------------
5|----------0-----0------0-0-3-0-----------------------------2-----3------3-2-0------0------0-------
6|---0----------------------------------------------------------------------------------------------

Комментарий автора:

+ - В этот момент не зажата ни одна струна  - 3-й лад зажимается мизинцем -/ - Dm переходит в E: сначала средний палец поднимается  на лад вверх, потом безымянный - на 4 струну,  затем ставится нормальный Е. 
 
 

Видео