Песни из кино и мультфильмов - Песенка Чебурашки, аккорды

Прокрутка
Тональность
Шрифт
100
 Am         E7      Am
(1)Я был когда-то странной игрушкой безымянной,
   C       G7           C
К которой в магазине никто не подойдет.
 Am       Dm     G7      C   A7
Теперь я - Чебурашка, и каждая дворняжка
     Dm   Am  E7     Am
При встрече сразу лапу подает.
 
 Am         E7      Am
(2)Мне не везло сначала, и даже так бывало:
   C       G7           C
Ко мне на день рожденья никто не приходил.
 Am       Dm     G7      C   A7
Теперь я вместе с Геной, он необыкновенный,
     Dm   Am  E7     Am
Он самый лучший в мире крокодил.
________________________
Табы:

Am           E
Я был когда-то странной
3---------2-----
2-------1---1-0-
1-0-1-0---------

         Am
Игрушкой безымянной
3---------------
2-3---3-0-3-----
1---0-------1-0-

    C       G
К которой в магазине
3---------------
2---------1---3-
1-3-5-3-0---0---

          С
Никто не подойдет
3---------------
2-3---3---------
1---0----0--1-3-

  A7     Dm
Теперь я Чебурашка
3-------------
2--3----------
1-0-5-5-0-3-1-

  G     C
И каждая дворняжка
3---------------
2-3-----3-------
1---3-3---1-0-0-

   Dm     Am
При встрече, сразу
3-----------
2-----3---1-
1-3-1---0---

  E   Am
Лапу подает
3--2---------
2----3--0--1-
1-0----------
 
 

Видео