Песни из кино и мультфильмов - Да или нет (Дима Власкин, OST "Физрук"), аккорды

Прокрутка
Тональность
Шрифт
100
Проигрыш:
E|-------------------------12---------------------------------12-------
B|-------------12-13------------------------------12-13----------------
G|-14----------------14---------------14-----14--------14--------------
D|----(14)-------------------------------------------------------------
A|--0-------X------0---------X--(0)-0------X--------0----------X---(0)-
E|-----------X----------------X--------------X--------------------X----

E|-------------------7----------------------------------7-------:||
B|-----8-----7-8--------------------8--------7--8---------------:||
G|--9-------------9----------------9-------9-------9------------:||
D|--------------------------------9-----------------------------:||
A|---------X------------X---------------X------------------X----:||
E|--0------X---0-------X--(0)-0-------X--------0---------X--(0)-:||

 Am 
Детка, когда увидел тебя забыл, как дышать
                            Am/C       Em
И где-то внизу живота пульсировала душа.
Я смотрел в эти глаза и понимал, что тону.
Среди огромной толпы видел тебя одну.

Am
    Мы не играем в любовь - это реальные чувства
                        Am/C       Em
Мне с тобой хорошо, без тебя грустно
Пусть я пока не звезда и с деньгами не очень,
Зато я знаю, как заставить стонать тебя ночью...

Припев: 
Am
Если ты мне веришь, тебя обниму
          C
И мы выключим свет.
       Em
Скажи мне только, "да" или "нет"
      Em
Скажи мне детка, "да" или "нет"

Am
Если ты захочешь, 
                          C
я буду с тобой две тысячи лет
       Em
Скажи мне только, да или нет.
       Em
Скажи мне детка, да или нет.

Детка, не верь никому, кто в нас не верит
Мне не нужны понты, мне важно твоё доверие
Любовь не сладкая сказка и не ванильная чушь
Это битва, проверка, соединение душ.

Пусть иногда будут ссоры, они закаляют сердца
Я не умею проигрывать, я иду до конца
Когда знаешь за что бороться, надо идти на риск
Я выиграл лотерею и ты детка мой приз

Припев:
Если ты мне веришь, тебя обниму
И мы выключим свет,
Скажи мне только, "да" или "нет"
Скажи мне детка, "да" или "нет"

Если ты захочешь 
я буду с тобой две тысячи лет
Скажи мне только, "да" или "нет"
Скажи мне детка, "да" или "нет"
 
 

Видео