Песни из кино и мультфильмов - Blow With The Fires (OST "Everlasting Summer"), аккорды

Прокрутка
Тональность
Шрифт
100
1)
----------------------------------------------------------------------
------------------5---------------------------------------------------
----------5----------------2---------5--------------------------------
--------------------------------------------------------5-------------
----------------------------------------------------------------------
----------------------------------------------------------------------
2)

-----------------------------------------------3------------------------
------------------5---------------3-------------------------------------
---------5-----------------2--------------------------------------------
------------------------------------------------------------------------
------------------------------------------------------------------------
------------------------------------------------------------------------

3)
-------------------------------------3----------------------------------
--------3---------5-------6---------------------------6-----------------
------------------------------------------------------------------------
------------------------------------------------------------------------
------------------------------------------------------------------------
------------------------------------------------------------------------

4)
------------------------------------------------------------------------
--------5---------3-----------------3-----------------------------------
----------------------------5-------------------------------------------
------------------------------------------------------5-----------------
------------------------------------------------------------------------
------------------------------------------------------------------------

5)
----------------------------------------------------------------------
------------------5---------------------------------------------------
----------5----------------2---------5--------------------------------
--------------------------------------------------------5-------------
----------------------------------------------------------------------
----------------------------------------------------------------------

6)
---------------------------------------------------3--------------------
-----------------5----------------3-------------------------------------
------5-------------------2---------------------------------------------
------------------------------------------------------------------------
------------------------------------------------------------------------
------------------------------------------------------------------------

7)
-------5-----------------------------------------3------3--------------
------------------6--------3------------6-----------------------3------
-----------------------------------------------------------------------
-----------------------------------------------------------------------
-----------------------------------------------------------------------
-----------------------------------------------------------------------

8)
-----------------------------------------------------------------------
----------------------5----------5-------------------------------------
-----------------------------------------------5-----------------------
-----------------------------------------------------------------------
-----------------------------------------------------------------------
-----------------------------------------------------------------------
 
 
Свернуть Распечатать

Видео