Песни из кино и мультфильмов - Где среди пампасов (х/ф "12 стульев"), аккорды

Прокрутка
Тональность
Шрифт
100
 Bm                                F#
 Где среди пампасов бегают бизоны,
 Am                B7            Em
 Где над баобабами закаты, словно кровь,
 Em                      F#          Bm   G
 Жил пират угрюмый в дебрях Амазонки,
 C#                              F#
 Жил пират, не верящий в любовь.

 1|--1--0---------------------
 2|--------3--1--0------------
 3|---------------------------
 4|---------------------------
 5|---------------------------
 6|---------------------------

 Но когда однажды, после канонады,
 После страшной битвы возвращался он домой,
 Стройная фигурка цвета шоколада,
 Помахала с берега рукой.

 1|--1--0---------------------
 2|--------3--1--0------------
 3|---------------------------
 4|---------------------------
 5|---------------------------
 6|---------------------------

 Припев:
 Am              B7
 Там, где любовь,
 Em
 Там, где любовь,
 A
 Там, где любовь,
 F#
 Там всегда проливается кровь.

 2 куплет:
 Словно статуэтка, девушка стояла,
 И пират корабль свой к ней направить поспешил,
 И в нее влюбился, и ее назвал он:
 "Птичка на ветвях моей души".

 1|--1--0---------------------
 2|--------3--1--0------------
 3|---------------------------
 4|---------------------------
 5|---------------------------
 6|---------------------------

 Но однажды ночью с молодым ковбоем
 стройную креолку он увидел на песке,
 и одною пулей (Бабах!) он убил обоих,
 и бродил по берегу в тоске.

 Припев

 3 куплет:
 На другое утро, плача о креолке,
 чувствуя, что страсти не унять, не потушить,
 Выстрелил в себя он (Ах!), чтоб навек умолкла
 птичка на ветвях его души.

 Припев

Комментарий автора:

Вся песня играется короткими ударами вниз, только   вначале и конце
куплета можно играть ресгеадо (удар по струнам раскрывающимися пальцами,
как во фламенко).
 
 
Свернуть Распечатать

Видео