Песни из кино и мультфильмов - Leaves From The Vine, аккорды

Прокрутка
Тональность
Шрифт
100
Leaves from the vine         falling so slow          like fragile tiny shells              drifting in the foam
E[------------------------------------------------------------------------------------------------------------------------------] 
B[------------------------------------------------------------------------------------------------------------------------------]                         
G[-9--9-7-6--------------------9-9-7-6---------------6----6b-------------------------------4/6-----------------------------]
D[--------------------------------------------------------------------7b-------------------------------6/7---------------------]    
A[-------------------------------------------------------------------------------------------------------------------------------]     
E[-------------------------------------------------------------------------------------------------------------------------------]    

little soldier boy            come marching home          brave soldier boy               comes marching home
E[-------------------------------------------------------------------------------------------------------------------------------] 
B[-------------------------------------------------------------------------------------------------------------------------------]                         
G[-9--9-7-6--------------------9-9-7-6-------------------6----6b-------------------------------4/6--------------------------]
D[-----------------------------------------------------------------------7b-------------------------------6/7------------------]
A[------------------------------------------------------------------------------------------------------------------------0-----]     
E[-------------------------------------------------------------------------------------------------------------------------------]
 
 

Видео