Песни из кино и мультфильмов - Я боюсь этой тьмы (к/ф "Мушкетеры 20 лет спустя"), аккорды

Прокрутка
Тональность
Шрифт
100
Припев:
    Gm         D#
Я боюсь этой тьмы,
        Cm
Беспросветной и жуткой!
   Gm     D#
Оттуда сюда
     Cm        B7
Никогда не вернусь!
     Gm      D#
Это шутка какая-то,
  Cm
Глупая шутка
     Bb        Gm
Иль сон это, сон,
      D        Cm7
И сейчас я проснусь!

    Bb                D
Сейчас проснусь, и сгинет этот ужас!
       D#
Жизнь погасить нельзя ведь, как свечу!
    Bb           D
Послушайте, мне ничего не нужно –
   D
Я жить хочу, я только жить хочу!

Припев:
    Gm         D#
Я боюсь этой тьмы,
        Cm
Беспросветной и жуткой!
   Gm     D#
Оттуда сюда
     Cm        B7
Никогда не вернусь!
     Gm      D#
Это шутка какая-то,
  Cm
Глупая шутка
     Bb        Gm
Иль сон это, сон,
      D        Cm7
И сейчас я проснусь!

    Bb           D
Я вас молю, не смейтесь над беднягой.
       D#
Я вам согласен целый век служить!
    Bb           D
Последним нищим, крысой иль собакой
       D
Плохой согласен быть, но только жить!

Припев:
    Gm         D#
Я боюсь этой тьмы,
        Cm
Беспросветной и жуткой!
   Gm     D#
Оттуда сюда
     Cm        B7
Никогда не вернусь!
     Gm      D#
Это шутка какая-то,
  Cm
Глупая шутка
     Bb        Gm
Иль сон это, сон,
      D        Cm7
И сейчас я проснусь!

     Gm      D#
Это шутка какая-то,
  Cm
Глупая шутка
     Bb        Gm
Иль сон это, сон,
      D        Cm7
И сейчас я проснусь!
_______________________________
Мелодия (без соблюдения длительности и пауз):

Припев:
E|-----------------------------------------------------|
B|-8-8-8-13-8-4---8-4-1--3-4-1-3-4-8-6-1-4-3-1-1-4-3-0-|

E|----------------------------------6-4----------------|
B|-8-8-8-13-8-4---8-4-1--3-4-1-3-4-----4-8-6-4-3-4-3-1-|

Куплет:
B|-1-----------------------------------------------|
G|---3--3-3--3-7-7-7-7-7-7--7--8-8-8-8-8-8-8-10-12-|

B|-1--------------------------------------------------|
G|---3--3-3--3-7-7-7-7-7-7--7--7-7-7-7-7-7-8-7-7-10-7-|
 
 

Видео