Песни из кино и мультфильмов - Peppa Pig (intro), аккорды

Прокрутка
Тональность
Шрифт
100
Intro:
e|--3--0-----------|-----------1--0----|
B|--------1--3-----|--------3--------1-|
G|--------------0--|--0--4-------------|
D|-----------------|-------------------|
A|-----------------|-------------------|
E|-----------------|-------------------|

e|--3--0-----------|-----------1----|
B|--------1--3-----|--------3-----1-|
G|--------------0--|--0--4----------|
D|-----------------|----------------|
A|-----------------|----------------|
E|-----------------|----------------|
 
 

Видео