Песни из кино и мультфильмов - Погоня (к/ф "Новые приключения неуловимых"), аккорды

Прокрутка
Тональность
Шрифт
100
Основная тема:
E||--------------------|----------------|--------------
B||----1---------------|----1----4----2-|------------1-
G||------------------1-|----------------|----1----0----
D||---------3----------|----------------|--------------
A||--------------------|----------------|--------------
E||--------------------|----------------|--------------

------------|--------------------|---------1----3-
------------|--------------------|----1-----------
----0----1--|----0-------------1-|----------------
------------|---------3----------|----------------
------------|--------------------|----------------
------------|--------------------|----------------

----1---------------|-----------|---------4------1-
---------4----------|----2----1-|----1-------------
------------------3-|-----------|------------------
--------------------|-----------|------------------
--------------------|-----------|------------------
--------------------|-----------|------------------

----4----3------|--------------------|-----------
--------------4-|---------7--------6-|----4------
----------------|----5---------------|---------3-
----------------|--------------------|-----------
----------------|--------------------|-----------
----------------|--------------------|-----------

----------------------|---------------------1-|
----------------------|----------2--2----2----|
------1--0--0----0--3-|--3----3---------------|
----------------------|-----------------------|
----------------------|-----------------------|
----------------------|-----------------------|

--1----1---------|-----------|
----------1----4-|----2----1-| 
-----------------|-----------|
-----------------|-----------|
-----------------|-----------|
-----------------|-----------|

----------------------|---------------------1--|
----------------------|----------2--2----2-----|
------1--0--0----0--3-|--3----3----------------|
----------------------|------------------------|
----------------------|------------------------|
----------------------|------------------------|

--1----1-------4-|----3----1-|
----------1------|-----------|
-----------------|-----------|
-----------------|-----------|
-----------------|-----------|
-----------------|-----------|

Комментарий автора:

Текст:
     Усталость забыта,
     Колышется чад,
     И снова копыта,
     Как сердце, стучат.
     
Припев:
     И нет нам  покоя,
     Гори, но живи!
     Погоня, погоня,
     Погоня, погоня
     в горячей крови.
     
     Есть пули в нагане,
     И надо успеть
     Сразиться с врагами
     И песню допеть
     
Припев:
     И нет нам  покоя,
     Гори, но живи!
     Погоня, погоня,
     Погоня, погоня
     в горячей крови.
     
     В удачу поверьте –
     И дела с концом.
     Да здравствует ветер,
     Который в лицо!
     
Припев:
     И нет нам  покоя,
     Гори, но живи!
     Погоня, погоня,
     Погоня, погоня
     в горячей крови.
 
 

Видео