Песни из кино и мультфильмов - Непогода (к/ф "Мэри Поппинс, до свиданья"), аккорды

Прокрутка
Тональность
Шрифт
100
Вступление:
e|---3-2-3---3-2-3----2------0-------------------------------------------------|
B|---3-3-3---3-3-3------3------2----3------2------0---3------------------------|
G|------------------2-----2------2----4------2------0--------------------------|
D|--------------------0------2----------4------2-------------------------------|
A|---------0------------------------2------0------2----------------------------|
E|-0---------------------------------------------------------------------------|

                                  (F#7) (Bm) (A)
e|---3-2-3-------0----------------------------0--------------------------------|
B|---3-3-3-----2---2---2--3-------------------2--------------------------------|
G|-----------3-------3------4---4-------------2--------------------------------|
D|----------------------------4---------------2--------------------------------|
A|---------1--------------2-------------------0--------------------------------|
B|-0---------------------------------------------------------------------------|

D                   G            A
Изменения в природе  происходят год от года.
D                      G          F#7
Непогода нынче в моде, непогода, непогода.
Bm           Bm7     D                 E
Словно из водопровода льет на нас с небес вода.
     G       A     D  Bm     G         A       D Bm
Полгода плохая погода. Полгода - совсем никуда.
     G       A     D  Bm     G      F#         Bm
Полгода плохая погода. Полгода - совсем никуда.

	             Em    A     D      Bm
	Никуда, никуда нельзя укрыться нам.
	                Em       A      D Bm
	Но откладывать жизнь никак нельзя.
	             Em       A        D     Bm
	Никуда, никуда, но знай, что где-то там
	               Em    F#7   Bm  A
	Кто-то ищет тебя среди дождя.

Грома грозные раскаты от заката до восхода,
За грехи людские плата - непогода, непогода.
Не ангина, не простуда - посерьезнее беда -
Полгода плохая погода. Полгода - совсем никуда.

	Припев
 
 
Свернуть Распечатать

Видео