Песни из кино и мультфильмов - The Imperial March (Имперский Марш, OST "Star Wars"), аккорды

Прокрутка
Тональность
Шрифт
100
e|-------------------------------------------------------|
b|--------------------------------3-3-3--4-----------3-0-|
g|-0-0-0------3-0----3-0-------------------3------1------|
D|--------1--------1-------------------------4-----------| x2
A|-------------------------------------------------------|
E|-------------------------------------------------------|

e|-3-----3-2-1-------------------------------------------------|
b|-----------------545-----2-1-0-----------------------------3-|
g|---0-0-----------------1-------323-------------------3-0-3---|
D|------------------------------------------1--4--1--4---------|
A|-------------------------------------------------------------|
E|-------------------------------------------------------------|
 
 

Видео