Песни из кино и мультфильмов - Офицеры (к/ф "Офицеры"), аккорды

Прокрутка
Тональность
Шрифт
100
               Am             Dm                      E                  Am
1---5---3-0-------3-1-----0--------------------0-------------------------------|
2----------------------------1-3-1-0------3-0------1--1-3----------------------|
3---2--4-5-4--2-----------2--4-5--2--4----------4-------------4--4-4--2--4-----|
4------------------------------------------------------------------------------|
5------------------------------------------------------------------------------|
6------------------------------------------------------------------------------|

                A                 Dm                           F       Dm   Am F E Am
1---0--1-3-1-0--5---3-0---0--0-0---0-1---1-3-5---1-3-5--3-1-5-----7-5-3-1-0-------|
2----------------------3-------------------3-5-1--1-1-0---------------------------|
3-----------------------------------------------2---------------------------------|
4---------------------------------------------------------------------------------|
5---------------------------------------------------------------------------------|
6---------------------------------------------------------------------------------|

Am             Dm     
От героев былых времен
 E                  Am
Не осталось порой имен.
Am             Dm     
Те, кто приняли смертный бой,
   F       Dm   Am F E Am
Стали просто землей и травой...
Am             Dm     
Только грозная доблесть их
 E                  Am
Поселилась в сердцах живых.
Am             Dm     
Этот вечный огонь, нам завещан одним,
   F       Dm   Am F E Am
Мы в груди храним.

Am             Dm     
Погляди на моих бойцов -
 E                  Am
Целый свет помнит их в лицо.
Am             Dm     
Вот застыл батальон в строю...
   F       Dm   Am F E Am
Снова старых друзей узнаю.
Am             Dm     
Хоть им нет двадцати пяти,
 E                  Am
Трудный путь им пришлось пройти,
Am             Dm     
Это те, кто в штыки поднимался как один,
   F       Dm   Am F E Am
Те, кто брал Берлин!

Am             Dm     
Нет в России семьи такой,
 E                  Am
Где не памятен был свой герой.
Am             Dm     
И глаза молодых солдат
   F       Dm   Am F E Am
С фотографий увядших глядят...
Am             Dm     
Этот взгляд, словно высший суд,
 E                  Am
Для ребят, что сейчас растут.
Am             Dm     
И мальчишкам нельзя ни солгать, ни обмануть,
   F       Dm   Am F E Am
Ни спути свернуть!

Комментарий автора:

Совет: песня звучит гораздо лучше если ее играть "вальсовым боем"
 
 
Свернуть Распечатать

Видео