Песни из кино и мультфильмов - Музыка из к/ф "Такси-2", аккорды

Прокрутка
Тональность
Шрифт
100
  
e---------------------------1-0-----3------5-7-8-8---5-3----
b---------1-0-------------3-----3------3-----------------3--
g-------2-----2---------2-----------------------------------
D-----2---------------0-------------------------------------
A---0---------------0---------------------------------------
E-0---------------0-----------------------------------------
     Am  Dm                                 Am  Dm
e----0---1-----3------5-7-8-8---5-3---------0---1-----3-----
b-5--1---3--------3-------------------3-5---1---3-------3---
g----2---2----------------------------------2---2-----------
D----2---0----------------------------------2---0-----------
A----0---0----------------------------------0---0-----------
E----0---0----------------------------------0---0-----------
                       Am  Dm  Am  Dm  Am  Dm
e-5-7-8-8---5-3--------0---1---0---1---0---1----------------
b----------------3-5---1---3---1---3---1---3----------------
g----------------------2---2---2---2---2---2----------------
D----------------------2---0---2---0---2---0----------------
A----------------------0---0---0---0---0---0----------------
E----------------------0---0---0---0---0---0----------------
 
 
Свернуть Распечатать