Песни из кино и мультфильмов - Тема из к/ф "Star Wars", аккорды

Прокрутка
Тональность
Шрифт
100
e|---------------------------------|-------------------|-----------------|
B|---------------------------------|-------------------|-----------------|
G|---------------------------------|-2-----3-2-1-0---0-|-----------------|
D|---------------------------------|-2-2-2-3-0---------|-0-0---------4---|
A|-0-0-0---3-0---3-0-3---3-0---3-0-|-------------------|-----------------|
E|-------1-----1-------1-----1-----|-------------------|-----------------|

e|------------------
B|------------------
G|------------------
D|-0-5-4-3-212------
A|----0---3-0---3-0-
E|-1---1-----1------
 
 

Видео