Песни из кино и мультфильмов - Тема Люка Скайуокера из к/ф "Star Wars", аккорды

Прокрутка
Тональность
Шрифт
100
Main Riff:
e|-----3----5-----6h8--6-------|------3---5-3-6------10/12----10-10-10-
B|-3-3----------------------3--|--3-3-----------3----------------------
G|-----------------------------|---------------------------------------
D|-----------------------------|---------------------------------------
A|-----------------------------|---------------------------------------
E|-----------------------------|---------------------------------------

e|-----3---5-3-6----10----|-3-3--10-8-6-5-3--3--/10--||         
B|-------------3-3--------|--3-----------------------||
G|------------------------|--------------------------||
D|------------------------|--------------------------||
A|------------------------|--------------------------||
E|------------------------|--------------------------||
 
 

Видео