Песни из кино и мультфильмов - Музыка из к/ф "Крестный отец", аккорды

Прокрутка
Тональность
Шрифт
100
Часть 1:
|--0-5-8-7-5-8-5-7-5-1-3-0-------0-5-8-7-5-8-5-7-5-0-------|
|--------5-------5----------1----------5-------5-----4-3---|
|--------5-------5---------2-2---------5-------5---------2-|
|-------------------------------------------------------3-3|
|0-------0-------0-------0-----0-------0-------0-------2---|
|----------------------------------------------------------|

|----1-4-7---------1-4-5------------3-1-0-3-1-1-0-0--------|
|--3--------0----3--------5-------1-----------0------------|
|------------------------5-5----2-------------1-----1-2----|
|0---------6-6---------------------------------------------|
|----------------------0-----0--------3-------0-------0-323|
|--------------0-------------------------------------------|

Часть 2:
|--5-5-4-3----7-5-1-3-0-------0-3-0----------1---0---------|
|----------0----------1--1----------3-------3-3------------|
|--5-5-4--0-0---------0-0-0------------3-------------------|
|-------------0-----------------------3-3--------2-0-------|
|0----------------0---3-----3-------1-----0----------3-2---|
|--------3-------------------------------------------------|

И начинать снова!
 
 
Свернуть Распечатать

Видео