Песни из кино и мультфильмов - Музыка из к/ф "Начало", аккорды

Прокрутка
Тональность
Шрифт
100
   Am             E                   Gm               D(V)       
1||-------------------------------------------------------------|
2||-------------------------------------------------------------|
3||--------10-9----------10-9--10-9--10-9----------9-7--9-7-----|
4||-7--10---------6--10-----------------------8------------7----|
5||--------------------------10-------------9-------------------|
6||-------------------------------------------------------------|

   Dm(V)          Am                   Dm              E  
1||-------------------------------------------------------------------------|
2||-------------------------------------------------------------------------|
3||---------9-7----------7--5--7--5-----5--4--3--4--5---4--5--4--5--4--5-4--|
4||------------------7------------7-----------------------------------------|
5||---------------8------------7--------------------------------------------|
6||-------------------------------------------------------------------------|
 
 

Видео