Песни из кино и мультфильмов - Тема из к/ф "Секретные материалы", аккорды

Прокрутка
Тональность
Шрифт
100
E----------------------------------------------
B|-8---------------------10--------------------------------
G||------9-7-9---9~~~----------9-7-9----9~~~---------------------------
D||----7---------------------7-----------------------------------------
A----------------------------------------------
E----------------------------------------------

   --------------------------------------------------------------------
   ---13-12-10-8-10----------13-12-10-8-12-----------------------------
   -----------------9~~~-------------------9~~~------------------------
   --------------------------------------------------------------------
   --------------------------------------------------------------------
   --------------------------------------------------------------------