Песни из кино и мультфильмов - Братья пилоты (м/ф "Следствие ведут колобки"), аккорды

Прокрутка
Тональность
Шрифт
100
B7               Em                             Am
E---------------3-|--------3--------|-----------------|
B-0---0-1-0---0---|-0---0---0---0---|-0---0-1-0---0---|
G---3-------3-----|-0---0---0---0---|-0-3-0---0-3-0---|
D-----------------|-----------------|-----------------|
A-----------------|---2-------2-----|---2-------2---0-|
E---------------0-|-------0-------0-|-------0---------| 

                                    D7                 
E-----------------|----3-------------|-----------------|
B-1---1---1---1---|-1-0-1-3-1-0-1----|-1---1---1---1---|
G-2---2---2---2---|-2---2---2---2----|-2---2---2---2---|
D---------------0-|-------0-------0--|-----------------|
A-------0-------0-|-------0----------|---0-------0-----|
E---0-------0-----|---0-------0------|-----------------|

                G+7                  B7 ^
E ---------------2-|-------3-------5--2-|
B -1-0-1-3-1-0-1---|-0---0-----0------0-|
G -2---2---2---2---|-0---0-----0------2-| x2 
D -------0-------1-|--------------------|
A ---0-------0-----|---2--------------2-|
E ---------------3-|-------3------------|

     B7    ^             Em                                   
E----3-3-3-3-3-2-0-|-3---------------|---3-3-3-3-3-2-0-|
B----0-------------|---0---0---0---0-|---0---0---0---0-|
G----2-------------|---0---0---0---0-|---0---0---0---0-|
D----1-------------|-----------------|-----------------|
A(2)---------------|-2---------------|-----------------|
E------------------|-0-------0-------|-0-------0---0---| 

                                    D7                         
E-3---------------|---3-3-3-3-3-2-0-|-3---------------|
B---1---1---1---1-|---1---1---1---1-|---1---1---1---1-|
G---2---2---2---2-|---2---2---2---2-|---2---2---2---2-|
D-----------------|-0-------0-------|-----------------|
A-0-------0-------|-0-------0-------|-----0-------0---|
E-----0-------0---|-----0-------0---|-----------------|

                   G7+
E---2-2-2-2-2-3-5-|-2-------3---5---|--2------------|
B---1---1---1-----|---0---0---0---0-|--0------------|
G---2---2---2-----|---0---0---0---0-|--2------------|
D-0-------0-------|--1--------------|---------------|
A-----0-------0---|--2--------------|---------------|
E-----------------|-3-------3-------|---------------|

Комментарий автора:

Предоставляю вниманию начинающих примитивную версию песенки
из мультика "Следствие ведут колобки" в табах. Пальцы следует
располагать в соответствии с указанными сверху аккордами.
B7(20212Х), Em (000220), Am (012200), D7 (21200X), G+7 (200023).
 
 
Свернуть Распечатать

Видео