Песни из кино и мультфильмов - В лесу родилась елочка (м/ф "В лесу родилась елочка"), аккорды

Прокрутка
Тональность
Шрифт
100
Вступление:

  C           G           C           C
|-------0-----------3-----------0-----------0-----|
|-----1---1-------0---0-------1---1-------1---1---|
|---0-------0---0-------0---0-------0---0-------0-|
|-------------------------2-----------------------|
|-3-----------------------3-----------------------|
|-3-----------------------------------------------|
  p i m a m i p i m a m i p i m a m i p i m a m i

  C           F           C           C
|-------0-----------1-----------0-----------0-----|
|-----1---1-------1---1-------1---1-------1---1---|
|---0-------0---2-------2---0-------0---0-------0-|
|-------------------------2-----------------------|
|-3-----------------------3-----------------------|
|-1-----------------------------------------------|
  p i m a m i p i m a m i p i m a m i p i m a m i

  F           G           C           Am            
|-------1-----------3-----------0-----------0-----| |
|-----1---1-------0---0-------1---1-------1---1---| |
|---2-------2---0-------0---0-------0---2-------2-| |
|-------------------------------------------------| |
|-------------3-----------0-----------------------| |
|-1-----------3-----------------------------------| |
  p i m a m i p i m a m i p i m a m i p i m a m i   |
                                                    | 2 раза
  C           G           C           C             |
|-------0-----------3-----------0-----------0-----| |
|-----1---1-------0---0-------1---1-------1---1---| |
|---0-------0---0-------0---0-------0---0-------0-| |
|-------------------------2-----------------------| |
|-3-----------------------3-----------------------| |
|-3-----------------------------------------------| |
  p i m a m i p i m a m i p i m a m i p i m a m i   /

    C    G      C    C
В лесу родилась елочка,
    C    F    C   C7
В лесу она  росла,
  F     Fm     C  B  Am   
Зимой и летом стройная, | 2-
  F   G   C   C         |раза 
Зеленая была.          /

Метель ей пела песенку:
"Спи, елочка, бай-бай!"
Мороз снежком укутывал:
"Смотри, не замерзай!"

Трусишка зайка серенький
Под елочкой скакал.
Порою волк, сердитый волк
Рысцою пробегал.

Чу! Снег по лесу частому
Под полозом скрипит;
Лошадка мохноногая
Торопится, бежит.

Везет лошадка дровенки,
А в дровнях старичок,
Срубил он нашу елочку
Под самый корешок.

Теперь она, нарядная,
На праздник к нам пришла
И много, много радости
Детишкам принесла.
 
 
Свернуть Распечатать

Видео