Песни из кино и мультфильмов - The Rains Of Castamere (OST "Game of Thrones"), аккорды

Прокрутка
Тональность
Шрифт
100
e|-------------------------------------------------|
B|-------------------------------------------------|
G|-------------------0-----------0-----------------|
D|---3-----2-----3-------2-----------3---2---0---2-|
A|-0-----0-----0-------------0---------------------|
E|-------------------------------------------------|

e|-----------------------------------------------|
B|-----------------------------------------------|
G|---2---3-0-----2---3-0---2---3---2---0---------|
D|-0---------------------------------------3---2-|
A|-------------3---------------------------------|
E|-----------------------------------------------|

e|-------------------------------------------------|
B|-------------------------------------------------|
G|-------------------0-----------0-----------------|
D|---3-----2-----3-------2-----------3---2---0-----|
A|-0-----0-----0-------------0-------------------3-|
E|-------------------------------------------------|

e|-----------------------------------------------|
B|-----------------------------------------------|
G|---2---3-0-----2---3-0---2---3---2---0---------|
D|-----------------------------------------3---0-|
A|-3-----------3---------------------------------|
E|-----------------------------------------------|

e|-------------------------------------------------|
B|-------------------------------------------------|
G|-------------------------------------------------|
D|-----2-3-0---3---3-2-------------2-3-0---3---3-2-|
A|-0-------------------3-------0-------------------|
E|-------------------------------------------------|

e|---------------------------------------------------|
B|---------------------------------------------------|
G|-------------2---2---0-----------------------------|
D|-----2-3-0---------------0---3---3-------0-2---3-0-|
A|-0-------------------------------------------------|
E|---------------------------------------------------|

e|-----------------------------------------------------|
B|-----------------------------------------------------|
G|-------------2---2---0-------------------2-2-0-------|
D|-----2-3-0---------------0---3---3-------------2-3-0-|
A|-0---------------------------------------------------|
E|-----------------------------------------------------|

e|-------------------------------------------------|
B|-------------------------------------------------|
G|-------------------0-----------0-----------------|
D|---3-----2-----3-------2-----------3---2---0---2-|
A|-0-----0-----0-------------0---------------------|
E|-------------------------------------------------|

e|-----------------------------------------------|
B|-----------------------------------------------|
G|---2---3-0-----2---3-0---2---3---2---0---------|
D|-0---------------------------------------3---2-|
A|-------------3---------------------------------|
E|-----------------------------------------------|

e|-----------------------------------------------------|
B|-----------------------------------------------------|
G|---2-----0-----2---3---0-------2---3---2---0---------|
D|-----------------------------------------------3---0-|
A|-3-----3-----3---------------------------------------|
E|-----------------------------------------------------|

e|-----------------------------------------------|
B|-----------------------------------------------|
G|-----------------------------------------------|
D|-----2-3-0---3---3-2---------3-3-0---3---3-2---|
A|-0-------------------3---0-------------------3-|
E|-----------------------------------------------|

e|-----------------------------------------------|
B|-----------------------------------------------|
G|-------------2---2---0-------------------------|
D|-----2-3-0---------------0---3---3---0-2---3-0-|
A|-0---------------------------------------------|
E|-----------------------------------------------|

e|-------------------------------------------------|
B|-------------------------------------------------|
G|-------------2---2---0---------------2-2-0-------|
D|-----2-3-0---------------0---3---3---------2-3-0-|
A|-0-----------------------------------------------|
E|-------------------------------------------------|

Комментарий автора:

Одно "тире" равняется одной шестнадцатой
 
 
Свернуть Распечатать

Видео