Песни из кино и мультфильмов - Все умрут (OST "Тетрадь Смерти"), аккорды

Прокрутка
Тональность
Шрифт
100
Вступление 1:
1)-1-1-1-------0-0-0------------------------------1-1-1-------0-0-0----------------1-1-1-------0-0-0--------
2)-------------------1-1-1------------------------------------------1-1-1----------------------------1-1-1--
3)-------2-2-2------------------------------------------2-2-2----------------------------2-2-2--------------
4)--------------------------3-3-0-0-0-0-0-0-0-0----------------------------3-3-0-0--------------------------

1)---------------------------13-13-13-12-12-12-12------------------13-13-13-8-8-8-8--
2)---------------6-6-6-5-5-5---------------------------6-6-6-5-5-5-------------------
3)---------3-3-3---------------------------------3-3-3-------------------------------
4)-3-3-0-0---------------------------------------------------------------------------

Вступление 2:
   A#            Gm                 Dm            F              A#            Gm               Dm   
1)-----------------------------3-0---------------------------3-----------------------------3-0--------------
2)-6---5--1---1---1----------1------6-5-1---1---1----------1-----6--5-1---1---8-6--------1------6-5-1---1---
3)---3------3---3---3--3-2-0--------------3---3---3--3-2-0--------------3---3------3-2-0--------------3---3-

   F
1)--------------3--
2)-1----------1----
3)---3--3-2-0------

Куплет:
A#        Gm    Dm      F       A#   
Стой, подними её, видишь не спроста,
      Gm  Dm           F 
Для тебя она в чёрном переплёте.
    A#        Gm  Dm    F      A#   
Прикрой, поплотнее за собою дверь 
     Gm      Dm F      
И воспользуйся силой бога!

Припев:
  A#                 Gm                      Dm 
Скрежет по бумаге, имена и лица, на земле в полёте,
                    F
Все кто провинился хоть немного
A#                     Gm                     Dm
Мысль в голове всего одна: "Грешники вы все умрёте!"
                     F
Всем вам в преисподнию дорога!
A#     Gm      Dm     F  
Хочешь, выжить, хватит сеять зло,
A#     Gm       Dm       F 
Может просто пока что тебе повезло.

Куплет:
A#        Gm    Dm      F       A#   
Страх, переполнил души и твой суд 
      Gm  Dm           F 
Стал вершиной справедливости.
A#        Gm    Dm      F   A#   
Ты окрестил себя богом смерти,
      Gm  Dm           F 
Но молчаливо все ждут твоей смерти!

Припев:
  A#                 Gm                      Dm 
Скрежет по бумаге, имена и лица, на земле в полёте,
                    F
Все кто провинился хоть немного
A#                     Gm                     Dm
Мысль в голове всего одна: "Грешники вы все умрёте!"
                     F
Всем вам в преисподнию дорога!
A#     Gm      Dm     F  
Хочешь, выжить, хватит сеять зло,
A#     Gm       Dm       F 
Может просто пока что тебе повезло.

Соло:
1)-1-1-1-------0-0-0----------------1-1-1-------0-0-0----------------------------------13-13-13-12-12-12-12-
2)-------------------1-1-1----------------------------1-1-1---------------6-6-6-5-5-5-----------------------
3)-------2-2-2----------------------------2-2-2---------------------3-3-3-----------------------------------
4)--------------------------3-3-0-0-------------------------3-3-0-0-----------------------------------------

1)-------------------13-13-13-8-8-8-8--
2)-------6-6-6-5-5-5-------------------
3)-3-3-3-------------------------------
4)-------------------------------------

Припев:
  A#                 Gm                    
Скрежет по бумаге, имена и лица,
 Dm                 F
Все кто провинился хоть немного
A#                     Gm                     Dm
Мысль в голове всего одна: "Грешники вы все умрёте!"
                     F
Всем вам в преисподнию дорога!
A#     Gm      Dm     F  
Хочешь, выжить, хватит сеять зло,
A#     Gm       Dm       Dm 
Может просто пока что тебе повезло.

Комментарий автора:

Бой: V v ^ ^ v ^.
 
 
Свернуть Распечатать

Видео