Песни из кино и мультфильмов - Lily Was Here (David A Stewart, OST "Lily Was Here"), аккорды

Прокрутка
Тональность
Шрифт
100
e|-------------------|-------------------------|-------------
B|-0-----------------|---0---------------------|-------------
G|----0------2-------|------0------2-----------|-------------
D|---------------2---|-----------------2---4---|----5--4---2-
A|-------------------|-------------------------|-------------
E|-------------------|-------------------------|-------------

e|-------------------|-------------------------|-------------
B|-0-----------------|---0---------------------|-------------
G|----0------2-------|------0------2-----------|----0--------
D|---------------2---|-----------------2-------|-------4---2-
A|-------------------|-------------------------|-------------
E|-------------------|-------------------------|-------------

e|-0---3---10-----------|---0---3---10-----0-------7------
B|------------------8---|----------------------10---------
G|-------------9--------|---------------------------------
D|----------------------|---------------------------------
A|----------------------|---------------------------------
E|----------------------|---------------------------------

e|-7--15--15--14-----|--7--15--15--14--14--12--12--10--10-
B|---------------12--|------------------------------------
G|-------------------|------------------------------------
D|-------------------|------------------------------------
A|-------------------|------------------------------------
E|-------------------|------------------------------------
 
 
Свернуть Распечатать

Видео