Песни из кино и мультфильмов - The Addams Family Main Theme (OST Семейка Аддамс), аккорды

Прокрутка
Тональность
Шрифт
100
Главный рифф:

A--------2---3- Щ-Щ --------4---5-Щ-Щ 
E--3--5-------- Ё-Ё --5--7-------- Ё-Ё 
C-------------- Л-Л -------------- Л-Л
G-------------- К-К -------------- К-К

A--------4---5---------4---5---------2---3- Щ-Щ
E--5--7----------5--7----------3--5-------- Ё-Ё
C------------------------------------------ Л-Л
G------------------------------------------ К-К

          C                 Dm
They're creepy and they're kooky,
    G7           C
Mysterious and spooky,
C                  Dm
They're altogether ooky,
    G7          C
The Addams Family.

       C            Dm
Their house is a museum
      G7             C
When people come to see 'em
      C              Dm         
They really are a scre-am
    G7          C
The Addams Family.


A--------2---3- Щ-Щ
E--3--5-------- Ё-Ё
C-------------- Л-Л
G-------------- К-К
(Neat)
A--------4---5- Щ-Щ
E--5--7-------- Ё-Ё
C-------------- Ё-Ё
G-------------- К-К
(Sweet)
A--------4---5---------4---5---------2---3- Щ-Щ
E--5--7----------5--7----------3--5-------- Ё-Ё
C------------------------------------------ Л-Л
G------------------------------------------ К-К
(Petite)

    C              Dm
So get a witch's shawl on
    G7                 C
A broomstick you can crawl on
       C           Dm
We're gonna pay a call on
    G7          C
The Addams Family.


Бонус (основная мелодия, вместо аккордов):

A----3--7--3--------5--------5-----------3----3--7--3--------5--3--2-----0--2--3
E--3----------5--------6--7-----7--3--0-----3----------5--------------3---------
C----------------5----------------------------------------5---------------------
G-------------------------------------------------------------------------------

Комментарий автора:

Подбор для укулеле
 
 
Свернуть Распечатать

Видео