Песни из кино и мультфильмов - Тема из к/ф "Пираты Карибского моря", аккорды

Прокрутка
Тональность
Шрифт
100
1.	Круг
1-------------------------------------------------------------------------------------
2----------------------------5--6--6----6--8--5--5------------------------------------
3----------5--7--7----7-------------------------------7--5/7--------------------------
4-----7-------------------------------------------------------------------------------
5-------------------------------------------------------------------------------------
6-------------------------------------------------------------------------------------

2.	Круг
1-------------------------------------------------------------------------------------
2--------------------------5--6--6----6--8--5--5--------------------------------------
3---------5--7--7----7------------------------------7--5--7---------------------------
4-----7-------------------------------------------------------------------------------
5-------------------------------------------------------------------------------------
6-------------------------------------------------------------------------------------

3.	Круг
1------------------------------------------5--6--6----5-----5-------------------------
2--------------------------6--8--8----8------------------8----------------------------
3---------5--7--7----7------------------------------------------7---------------------
4-----7-------------------------------------------------------------------------------
5-------------------------------------------------------------------------------------
6-------------------------------------------------------------------------------------

4.	Круг
1----------------------5--------------------------------------------------------------
2---------5--6--6--8--------------6--5--5--6------5-----------------------------------
3-----7-------------------7----7--------------7---------------------------------------
4-------------------------------------------------------------------------------------
5-------------------------------------------------------------------------------------
6-------------------------------------------------------------------------------------

Сейчас первый и второй круг повторяются

5.	Круг
1-------------------------------------------------------------------------------------
2--------------------------5--6--6----6--8--5--5--------------------------------------
3---------5--7--7----7------------------------------7--5--7---------------------------
4-----7-------------------------------------------------------------------------------
5-------------------------------------------------------------------------------------
6-------------------------------------------------------------------------------------

6.	Круг
1-----------------------------------------5--6--6----5-----5--------------------------
2-------------------------6--8--8----8------------------8-----------------------------
3---------5--7--7----7-----------------------------------------7----------------------
4-----7-------------------------------------------------------------------------------
5-------------------------------------------------------------------------------------
6-------------------------------------------------------------------------------------

7.	Круг
1------------------------5------------------------------------------------------------
2---------5--6--6--8---------------6--5--5--------------------------------------------
3-----7---------------------7----7------------7--6--7---------------------------------
4-------------------------------------------------------------------------------------
5-------------------------------------------------------------------------------------
6-------------------------------------------------------------------------------------

8.	Круг
1----------------------5---------------6----------------------------------------------
2---------5--6--6--8-----5----------------6-------------------------------------------
3-----7---------------------6---------------7-----------------------------------------
4------------------------------7---------------8----7--7--8--7------------------------
5-------------------------------------------------------------------------------------
6-------------------------------------------------------------------------------------

9.	Круг
1-----5--5--5--6--5----2--2--2----2--5----5--5--5--6--5----3--1--0--------------------
2-------------------------------------------------------------------3-----------------
3-------------------------------------------------------------------------------------
4-------------------------------------------------------------------------------------
5-------------------------------------------------------------------------------------
6-------------------------------------------------------------------------------------

10.	Круг
1----------------5-----------------5--------------------------------------------------
2-----3/5--6--8-----8--6--5--6--8----8------------------------------------------------
3-------------------------------------------------------------------------------------
4-------------------------------------------------------------------------------------
5-------------------------------------------------------------------------------------
6-------------------------------------------------------------------------------------

11.	 Круг
1-----------5-------------------------------------------------------------------------
2-----6--8-----8--6--5--6--5----5-----------------------------------------------------
3-----------------------------7-----5--7----------------------------------------------
4-------------------------------------------------------------------------------------
5-------------------------------------------------------------------------------------
6-------------------------------------------------------------------------------------

12.	 Круг
1------------------------------5------------------------------------------------------
2---------5--6--5--6--8--6--8-----8--6------------------------------------------------
3-----7---------------------------------7---------------------------------------------
4-------------------------------------------------------------------------------------
5-------------------------------------------------------------------------------------
6-------------------------------------------------------------------------------------

13.	 Круг
1------------------5--6---------------------------------------------------------------
2---------5--6--8-----------8--6----8--5-----------5----------------------------------
3-----7------------------7-----------------7----7-------------------------------------
4-------------------------------------------------------------------------------------
5-------------------------------------------------------------------------------------
6-------------------------------------------------------------------------------------

14.	Круг  (2 раза)
1-----5--6----5--5--5--5--------------------------------------------------------------
2-----------------------------8----8--6----5--6--5------------------------------------
3------------------------------------------------------7------------------------------
4-------------------------------------------------------------------------------------
5-------------------------------------------------------------------------------------
6-------------------------------------------------------------------------------------

 
 
Свернуть Распечатать