Песни из кино и мультфильмов - Someone In The Crowd (OST "La La Land") - by Justin Hurwitz, аккорды новинка

Прокрутка
Тональность
Шрифт
100
C               F/C
You got the invitation
C
You got the right address
C                F/C
You need some medication?
C
The answer's always "yes"
Dm                  Em
А little chance encounter
Dm                              C
Could be the one you've waited for
       C
Just squeeze a bit more


F                G
Someone in the crowd
              C                A7
Could be the one you need to know
     F              G                 C A7
The one to fin'lly lift you off the ground
F                G
Someone in the crowd could
           C              A7
Take you where you wanna go
   F                    G          Am
If you're the someone ready to be found


             Am
Do what you need to do
             F
'Til they discover you
              G
And make you more than who
               C E
You're seeing now
              Am
So with the stars aligned
               F
I think I'll stay behind
               G
You've got to go and find


    F               G              C               A7
Is someone in the crowd the only thing you really see?
 F                  G                     C  A7
Watching while the world keeps spinning 'round?
F                     G                  C           A7
Somewhere there's a place where I find who I'm gonna be
    F                    G             Am
A somewhere that's just waiting to be found
     F             G              C              Am
e||--------------|--------------|-0-0-0---3-0--|---------0---|
B||-(1)------0-1-|-(3)--------3-|-1-1-1---1-1--|-1-1-1---1-1-|
G||--2-2-2---2-2-|--4-4-4---5-4-|-0-0-0---0-0--|-2-2-2---2-2-|
D||--3-3-3---3-3-|--5-5-5---5-5-|-2------------|-2-2-2---2-2-|
A||--------------|--------------|-3------------|-0-----------|
E||--------------|--------------|--------------|-------------|

     F             G              Am              Am
e||--------------|--------------|--------------|-------------|
B||-(1)------0-1-|-(3)--------3-|-1-1-1---1-1--|-1-1-1---1-1-|
G||--2-2-2---2-2-|--4-4-4---5-4-|-2-2-2---2-2--|-2-2-2---2-2-|
D||--3-3-3---3-3-|--5-5-5---5-5-|-2-2-2---2-2--|-2-2-2---2-2-|
A||--------------|--------------|-0------------|-0-----------|
E||--------------|--------------|--------------|-------------|

     F             G              C              Am
e||--------------|--------------|-0-0-0---3-0--|---------0---|
B||----------0-1-|--0-0-0---1-3-|-1-1-1---1-1--|-1-1-1---1-1-|
G||--2-2-2---2-2-|--0-0-0---0-0-|-0-0-0---0-0--|-2-2-2---2-2-|
D||--3-3-3---3-3-|--0-0-0---0-0-|-2-2-2---2-2--|-2-2-2---2-2-|
A||--3-3-3-------|--------------|-3------------|-0-0-0-----0-|
E||--1-1-1---1-1-|--3-3-3---3-3-|--------------|-------------|

     Bm             E                A  (let ring)
e||---------2----|--------------|--------------|---------------|
B||-3-3-3---3--3-|--0-0-0---0-0-|----2---------|---------------|
G||-4-4-4---4--4-|--1-1-1---1-1-|----2---------|---------------|
D||-4-4-4---4--4-|--2-2-2---2-2-|----2---------|---------------|
A||-2-2-2------2-|--2-2-2---2-2-|----0---------|---------------|
E||--------------|--------------|--------------|---------------|
F                G                 C               A7
Someone in the crowd could be the one you need to know
     F                 G                  C  A7
The someone who could lift you off the ground
F                G                    C           A7
Someone in the crowd could take you where you wanna go
F                G
Someone in the crowd could make you
F                G
Someone in the crowd could take you
Em               A7
Flying off the ground
    F                   G           C
If you're the someone ready to be found

Комментарий автора:

Капидастр на 3 лад
Intro: "You got the invitation, You got the right address..."
Intro: (F/C)x (Dm)1 (Em)3
            1     3     6
            2     2     5
            3     3     6
            3     x     x
            x     x     x
 
 
Свернуть Распечатать

Видео