Песни из кино и мультфильмов - The Hanging Tree (OST "Голодные Игры: Сойка-Пересмешница"), аккорды

Прокрутка
Тональность
Шрифт
100
[Verse 1]
 
e|-------------------------------------------------------------------------------------------------|
B|--------------------------------------------------5----------------------------------------------|
G|-------5-7---------------------5-7------------------7-5-7-5----------------------5-7-------------|
D|-5-7---------7-7-7-5-----5-7-7------5-7-7-7-5-7-------------7--5-7-7-7-5-----5-7-----5-7-7-7-5-7-|
A|---------------------7---------------------------------------------------7-7---------------------|
E|-------------------------------------------------------------------------------------------------|
 
(Are you, are you, coming to the tree, they strung up a man, they say who murdered three, strange things
did happen here, no stranger would it be, if we met at midnight in the hanging tree)
 
 
[Verse 2]
 
e|--------------------------------------------------------------------------------------------------|
B|------------5-5-------------------5-5--------5-8-5------------------------------------------------|
G|-------5-7------7-5-----------5-7------7-5----------7-5----------------------5-7------------------|
D|-5-7-----------------7--5-7-7--------------7------------7--5-7-7-7-5-----5-7-----5-7-7-7-5-7------|
A|---------------------------------------------------------------------7-7--------------------------|
E|--------------------------------------------------------------------------------------------------|
 
(Are you, are you, coming to the tree, where dead man called out for his love to flee, strange things did
happen here, no stranger would it be, if we met at midnight in the hanging tree)
 
 
[Verse 3]
 
e|-----------------------------------------------------------------------------------------------|
B|-------------------------------------------5---------------------------------------------------|
G|-------5-7------------------5-7--------------7-5-7-5-----------------------5-7-----------------|
D|-5-7-------7-7-7-5----5-7-7-----5-7-7-5--------------7--5-7-7-7-5----5-5-7-----5-7-7-7-5-7-----|
A|-------------------7--------------------7-------------------------7----------------------------|
E|-----------------------------------------------------------------------------------------------|
 
(Are you, are you, coming to the tree, where I told you to run, so we'd both be free, strange things did
happen here, no stranger would it be, if we met at midnight in the hanging tree)
 
 
[Verse 4]
 
e|-------------------------------------------------------------------------------------------------|
B|---------5-5--------------------5-5--------5-8-5-------------------------------------------------|
G|-----5-7-----7-5-----------5-7------7-5----------7-5---------------------5-7---------------------|
D|-5-7-------------7--5-5-7-7-------------7-----------7--5-7-7-7-5----5-5-7-----5-7-7-7-5-7--------|
A|------------------------------------------------------------------7------------------------------|
E|-------------------------------------------------------------------------------------------------|
 
(Are you, are you, coming to the tree, wear a necklace of hope, side by side with me, strange things did
happen here. no stranger would it be, if we met at midnight in the hanging tree)
 
 
[Verse 5]
 
e|--------------------------------------------------------------------------------------------------|
B|-----------------------------------------5--------------------------------------------------------|
G|-----5-7------------------5-7--------------7-5-7-5-----------------------5-7----------------------|
D|-5-7-----7-7-7-5----5-7-7-----5-7-7-7-5-7-----------7-5-7-7-7-5-----5-7------5-7-7-7-5-7----------|
A|-----------------7----------------------------------------------7-7-------------------------------|
E|--------------------------------------------------------------------------------------------------|
 
(Are you, are you, coming to the tree, where I told you to run, so we'd both be free, strange things did
happen here, no stranger would it be, if we met at midnight in the hanging tree)
 
 
[Verse 6]
 
(other singers join in)
e|---------------------------------------------------------------------------------------------------|
B|------------------------------------------5--------------------------------------------------------|
G|-----5-7-------------------5-7--------------7-5-7-5-----------------------5-7----------------------|
D|-5-7-----7-7-7-5----5-7-7------5-7-7-7-5-7-----------7-5-7-7-7-5-----5-7------5-7-7-7-5-7----------|
A|-----------------7-----------------------------------------------7-7-------------------------------|
E|---------------------------------------------------------------------------------------------------|
 
(Are you, are you, coming to the tree, they strung up a man, they say who murdered three, strange things
did happen here, no stranger would it be, if we met at midnight in the hanging tree)
 
 
[Verse 7]
 
e|-------------------------------------------------------------------------------------------------|
B|---------5-5------------------5-5--------5-------------------------------------------------------|
G|-----5-7-----7-5----------5-7-----7-5------7-5-7-5---------------------5-7-----------------------|
D|-5-7-------------7--5-7-7-------------7------------7-5-7-7-7-5-----5-7------5-7-7-7-5-7----------|
A|---------------------------------------------------------------7-7-------------------------------|
E|-------------------------------------------------------------------------------------------------|
 
(Are you, are you, coming to the tree, where dead man called out for his love to flee, strange things did
happen here, no stranger would it be, if we met at midnight in the hanging tree)
 
 
Свернуть Распечатать

Аппликатуры аккордов

Anton_StepanovAnton_Stepanov
автор подбора аккордов
1,710 4 27.11.2021

Видео