Песни из кино и мультфильмов - Падал прошлогодний снег, аккорды

Прокрутка
Тональность
Шрифт
100
        Am          Am+7           Am7         Am+7
   E||--------0-----------0-----|--------0-----------0-----|
   B||-----1-----1-----1-----1--|-----1-----1-----1-----1--|
   G||--2-----------1-----------|--0-----------1-----------|
   D||--------------------------|--------------------------|
   A||--------------------------|--------------------------|
   E||--------------------------|--------------------------|

   E||--8--7--5--7--8--7--5--7-----------------|
   B||-----5-----------------------------------|
   G||-----------------------------------------|
   D||-----------------------------------------|
   A||-----------------------------------------|
   E||-----------------------------------------|
 
   Am          Am+7           Dm
 --------0-----------0--------------1-----------1-----|
 -----1-----1-----1-----1--------3-----3-----3-----3--|
 --2-----------1--------------2-----------------------|
 -----------------------------3-----------------------|
 -----------------------------------------------------|
 -----------------------------------------------------|

 --8--7--5--7--8--7--5--7-----------------|
 --------------------------_--4-----------|
 -----------------------------------------|
 -----------------------------------------|
 -----------------------------------------|
 -----------------------------------------|
 
   Dm          Dm+7           Dm7         Dm+7
 --------1-----------1--------------1-----------1-----|
 -----3-----3-----2-----2--------1-----1-----2-----2--|
 --------------2--------------2-----------2-----------|
 --0--------------------------------------------------|
 -----------------------------------------------------|
 -----------------------------------------------------|

 --10-8--7--8--10-8--7--8-----------------|
 -----------------------------6-----------|
 -----------------------------------------|
 -----------------------------------------|
 -----------------------------------------|
 -----------------------------------------|
 
   B                          Esus        E7
 --------1-----------1--------------0-----------0-----||
 -----3-----3-----3-----3--------0-----0-----0-----0--||
 --------------3--------------2-----------1-----------||
 --3--------------------------------------------------||
 -----------------------------------------------------||
 -----------------------------------------------------||

 --10-8--6--8--10-8--6--8-----------------||
 -----------------------------5-----------||
 -----------------------------------------||
 -----------------------------------------||
 -----------------------------------------||
 -----------------------------------------||
 
 
Свернуть Распечатать

Видео