Песни из кино и мультфильмов - Город, которого нет (к/ф "Бандитский Петербург"), аккорды

Прокрутка
Тональность
Шрифт
100
Вступление:
            
E-|--1---1---0---0---|--3---3-----------|--
B-|--3---3---3---3---|--3---3---5---5---|--
G-|--2---2---2---2---|--0---0---2---2---|-- 
D-|----0---0---0---0-|----------2---2---|-- x2
A-|------------------|----1---1---0---0-|--
E-|------------------|------------------|--

Соло 1:
E-|-------------------------------------|
B-|------15--17--1820--15---------------|
G-|---14-------------------12^--10--12^-|
D-|-------------------------------------|
A-|-------------------------------------|
E-|-------------------------------------|

Dm                      Gm
Ночь и тишина, данная на век.
C                           F
Дождь, а может быть, падает снег.
Gm                            Esus4
Все равно, бесконечно надеждой согрет,
Gm                         Esus4
Я вдали вижу город, которого нет.

Dm                      Gm
Где легко найти страннику приют,
C                           F
Где, наверняка, помнят и ждут;
Gm                            Esus4
День за днем, то теряя, то путая след,
Gm                          Esus4
Я иду в этот город, которого нет.

Припев:
D5                 Gm
Там для меня горит очаг,
            C
Как вечный знак
        F Esus4
Забытых истин.
D5                   Gm
Мне до него последний шаг,
       C
И этот шаг
        F Esus4
Длиннее жизни.

Соло 2:
E-|-------------------------------------|
B-|--15-17-18-17-15--10--8--6--5-6------|
G-|---------------------------------7---|
D-|-------------------------------------|
A-|-------------------------------------|
E-|-------------------------------------|

Dm                      Gm
Кто ответит мне, что судьбой дано,
C                          F
Пусть об этом знать не суждено.
Gm                            Esus4
Может быть, за порогом растраченных лет
Gm                          Esus4
Я найду этот город, которого нет.

Припев:
D5                 Gm
Там для меня горит очаг,
            C
Как вечный знак
        F Esus4
Забытых истин.
D5                   Gm
Мне до него последний шаг,
       C
И этот шаг
        F Esus4
Длиннее жизни.

Соло 3:
E-|-----------------------------------|
B-|--15-17-18-17-15--13-11-10-1013----|
G-|-----------------------------------|

E-|-----------17----------------------|
B-|--13-15-16-----16-15-13---12^------|
G-|-----------------------------------|


E-|-------11-15--17-14-15-17-15-21^---|
B-|--8-11-----------------------------|
G-|-----------------------------------|

E-|--------------------8-10-15-10-11^-|
B-|---------------8-11----------------|
G-|----------8-10---------------------|
D-|---5-8-10--------------------------|
A-|-8---------------------------------|
E-|-----------------------------------|

Припев:
D5                 Gm
Там для меня горит очаг,
            C
Как вечный знак
        F Esus4
Забытых истин.
D5                   Gm
Мне до него последний шаг,
       C
И этот шаг
        F Esus4
Длиннее жизни.

Outro = Соло 2:
E-|-------------------------------------|
B-|--15-17-18-17-15--10--8--6--5-6------|
G-|---------------------------------7---|
D-|-------------------------------------|
A-|-------------------------------------|
E-|-------------------------------------|

Комментарий автора:

муз.Игорь Корнелюк/сл.Регина Лисиц

Аккорды:
     Gm   D5   F   Esus4     Dm   C     
E-|--3----X----1----5(X)-----1----0--|-
B-|--3----3----1----5(X)-----3----1--|-
G-|--0----2----2----2(2)-----2----0--|-
D-|--0----0----3----2(2)-----0----2--|-
A-|--1----X----3----0(0)-----X----3--|-
E-|--X----X----1----X(X)-----X----X--|-

Esus4 можно заменить аккордом в скобках.
 
 
Свернуть Распечатать

Видео