Песни из кино и мультфильмов - Джентельмены удачи, аккорды

Прокрутка
Тональность
Шрифт
100
Часть 1:	   Em
1---------------------------------------------------------------
2--0----1--0-----0-------------0----1--0-----0-------------0----
3-------------3-------0--------0----------3-------0--------0----
4------------------------2-----2---------------------2-----2----
5---------------------------------------------------------------
6---------------------------0---------------------------0-------
                      Am
1--3--2--0-----------------------------------------------
2--0--------0----3--1--0--1----0-------------------------
3--0------------------------------2-----2-----2----2-----
4---------------------------------2-----2-----2----2-----
5------------------------------------------0-------------
6------------------------------------0-----------0-------

1----------------------------------------------------------
2--3--1--0--1------------------3--1--0--1------------------
3----------------2--------2------------------2--------2----
4-------------------2-----2---------------------2-----2----
5--0-------------------0---------------------------0-------
6----------------------------------------------------------
                      B7
1--------------------------------------------------------
2--3--1--0-------1--0----------1--0-----0-----0-----0----
3--0--------2----------2--0-------2-----2-----2-----2----
4------------------------------------------1-------------
5------------------------------------0-----------0-------
6--------------------------------------------------------

Часть 2:	   Em
1----------------------------------------------------------
2--1--0-----0-------------0----1--0-----0-------------0----
3--------3-------0--------0----------3-------0--------0----
4-------------------2-----2---------------------2-----2----
5----------------------------------------------------------
6----------------------0---------------------------0-------

                      Am
1--3--2--0-----------------------------------------------
2--0--------0----3--1--0--1----0-------------------------
3--0------------------------------2-----2-----2----2-----
4---------------------------------2-----2-----2----2-----
5------------------------------------------0-------------
6------------------------------------0-----------0-------
                 D             G             C
1--5--3--2--3----2--------2----5--3--2--3----2--0-----0----
2--5-------------------3------------------------1-----1----
3--5----------------2---------------------------------0----
4----------------0-------------0---------------------------
5--0-----------------------------------------------3-------
6----------------------------------------------------------

   Am                 Em
1--5--3--5--3----3--2----------2--0----------------------
2--5-------------------4--0-------0----------------------
3--5------------------------------0----------------------
4--------------------------------------------------------
5--0-----------------------------------------------------
6------------------------------0-------------------------
 
 
Свернуть Распечатать

Видео