Песни из компьютерных игр - Cyberpunk 2077 - Kerry's Song, аккорды

Прокрутка
Тональность
Шрифт
100
e||---------------|----------------|--------------|-----------------||
B||---------------|----------------|--------------|-----------------||
G||------------4--|----------------|--------------|-----------------||
D||-4--Х-----4----|--2--2------2/4-|-4-4-4-5-4-2-2|---0-2-0---------||
A||-2--Х--2-------|----------------|--------------|-----------------||
E||---------------|--2--2-Х--------|-3------------|-0---------------||

e||---------------|----------------|--------------|-----------------||
B||---------------|----------------|--------------|-----------------||
G||------------4--|----------------|--------------|----2------------||
D||-4--Х-----4----|--2--2------2/4-|-4-4-4-5-4-2-2|--0---2----------||
A||-2--Х--2-------|----------------|--------------|-----------------||
E||---------------|--2--2-Х--------|-3------------|-0---------------||

e||---------------|----------------|--------------|-----------------||
B||---------------|----------------|--------------|-----------------||
G||------------4--|----------------|--------------|-----------------||
D||-4--Х-----4----|--2--2------2/4-|-4-4-4-5-4-2-2|--0-2------------||
A||-2--Х--2-------|----------------|--------------|------2----------||
E||---------------|--2--2-Х--------|-3------------|-0---------------||

e||---------------|----------------|--------------|-----------------||
B||---------------|----------------|--------------|-----------------||
G||------------4--|----------------|--------------|-----------------||
D||-4--Х-----4----|--2----2--2/0---|--------------|-----------------||
A||-2--Х--2-------|----------------|--------------|-----------------||
E||---------------|--2-Х-----3-----|--------------|-----------------||

e||------2--------|-----2-0--------|-2-2-2-2-0----|-----------------||
B||---------3-----|----------------|-0---------3--|-0-0-0-0-3-0-----||
G||---------------|----------------|--------------|-0---------------||
D||---------------|----------------|--------------|-----------------||
A||-2-2-----------|----------------|--------------|-----------------||
E||---------------|-2-2------------|-3------------|-0---------------||

e||------2--------|-----2-0--------|-----0-2-2-2--|5-1-0---0---0----||
B||---------3-----|----------------|--------------|------3---3---2--||
G||---------------|----------------|--------------|-----------------||
D||---------------|----------------|--------------|-----------------||
A||---------------|----------------|--------------|-----------------||
E||-2-2-----------|-2-2------------|-----3--------|----0------------||

e||------2--------|-----2-0--------|-2-2-2-2-0----|-----------------||
B||---------3-----|----------------|-0---------3--|-0-0-0-0-3-0-----||
G||---------------|----------------|--------------|-0---------------||
D||---------------|----------------|--------------|-----------------||
A||-2-2-----------|----------------|--------------|-----------------||
E||---------------|-2-2------------|-3------------|-0---------------||

e||------2--------|-----2-0--------|-2/5-5/7-0---0|-----------------||
B||---------3-----|----------------|-----------3--|-3-0-Х-0---3-0-Х-||
G||---------------|----------------|--------------|---------2-------||
D||---------------|----------------|--------------|-----------------||
A||---------------|----------------|-------------2|-----------2-----||
E||-2-2-----------|-2-2------------|-0------------|-----------------||

e||--------0------|-0---0-----0-2--|--------------|-----------------||
B||---0--3---3----|---3---3--------|--0-----------|-----------------||
G||---------------|----------------|--------------|-----------------||
D||---------------|----------------|--------------|-----------------||
A||---------------|----------------|--------------|-----------------||
E||--------0------|----------------|0-------------|-----------------|| 

Комментарий автора:

табы делал для себя с этого видео 
 
 
Свернуть Распечатать

Аппликатуры аккордов

RoknysesRoknyses
автор подбора аккордов
2,662 5 04.02.2022

Видео