Песни из мультфильмов - Я был когда-то странной игрушкой безымянной ("Песенка Чебурашки"), аккорды

Прокрутка
Тональность
Шрифт
100
  	Am                 E              Am 
  	Я был когда-то странной Игрушкой безымянной 
	1|-0-1-0--------|---0-------1-0| 
	2|-------1---1-0|-3---3-0-3----| 
	3|---------2----|--------------| 
  	    C          G                   C
  	К которой в магазине Никто не подойдёт 
	1|-3-5-3-0---0--|---0----0--1-3| 
	2|---------1---3|-3---3--------| 
	3|--------------|--------------| 

	   A7        Dm       G        C 
 	 Теперь я Чебурашка И каждая дворняжка 
	1|-0-5-5-0-3-1--|---3-3---1-0-0| 
	2|-------------3|-3-----3------| 
	3|--------------|--------------| 

	      Dm       Am     E    Am 
  	При встрече, сразу Лапу подаёт 
	1|-3-1---0------|-0------------| 
	2|-----3---1----|----3--0--1---| 
	3|--------------|-------------2| 

  	Am                 E              Am 
  	Мне не везло сначала, и даже так бывало: 
	1|-0-1-0--------|---0-------1-0| 
	2|-------1---1-0|-3---3-0-3----| 
	3|---------2----|--------------| 

  	    C          G                   C
	Ко мне на день рожденья никто не приходил. 
	1|-3-5-3-0---0--|---0----0--1-3| 
	2|---------1---3|-3---3--------| 
	3|--------------|--------------| 

	   A7        Dm       G        C
	Теперь я вместе с Геной, он необыкновенный, 
	1|-0-5-5-0-3-1--|---3-3---1-0-0| 
	2|-------------3|-3-----3------| 
	3|--------------|--------------| 

	      Dm       Am     E    Am 
	Он самый лучший в мире крокодил.
	1|-3-1---0------|-0------------| 
	2|-----3---1----|----3--0--1---| 
	3|--------------|-------------2| 
 
 

Видео