Песни из мультиков - Gravity Falls Main Theme, аккорды

Прокрутка
Тональность
Шрифт
100
Intro:
e|--------------------------------------------------------------------------|
B|-6-------6--------6-------6---------5-------5-------5-------5-------------|
G|---7---7---7---7----5---5---5----5----6---6---6---6---6---6---6----6------|
D|-----7-------7--------7-------7---------7-------7-------7-------7---------|
A|--------------------------------------------------------------------------|
E|--------------------------------------------------------------------------|

Main arpeggio: (x2)
e|--------------------------------------------------------------------------|
B|-6-------6--------6-------6---------6-------6-------6-------6-------------|
G|---7---7---7---7----7---7---7----7----5---5---5---5---5---5---5----5------|
D|-----7-------7--------7-------7---------7-------7-------7-------7---------|
A|--------------------------------------------------------------------------|
E|--------------------------------------------------------------------------|

e|--------------------------------------------------------------------------|
B|-6-------6-------6--------6-----------8---------8-------------------------|
G|---7---7---7---7---7----7---7----7------9-----9----9----9-----------------|
D|-----8-------8-------8---------8-----------10--------10-------------------|
A|--------------------------------------------------------------------------|
E|--------------------------------------------------------------------------|

e|--------------------------------------------------------------------------|
B|--5-----------5-----------------------------------------------------------|
G|-----6-----6-----6------6-------------------------------------------------|
D|--------7------------7----------------------------------------------------|
A|--------------------------------------------------------------------------|
E|--------------------------------------------------------------------------|

Ending of arpeggio:
e|--------------------------------------------------------------------------|
B|-6-------6--------6-------6---------6-------6-------8-------8-------------|
G|---7---7---7---7----5---5---5----5----7---7---7---7---9---9---9----9------|
D|-----7-------7--------7-------7---------8-------8-------10-------10-------|
A|--------------------------------------------------------------------------|
E|--------------------------------------------------------------------------|

e|--------------------------------------------------------------------------|
B|---5----------5-----------------------------------------------------------|
G|-----6----6-----6----6----------------------------------------------------|
D|--------7----------7------------------------------------------------------|
A|--------------------------------------------------------------------------|
E|--------------------------------------------------------------------------|

Whistling riff/tune:
e|10----12-13------17---15---17----------10-----12--13--12-----15-17-15-13--|
B|---------------------------------13---------------------------------------|
G|--------------------------------------------------------------------------|
D|--------------------------------------------------------------------------|
A|--------------------------------------------------------------------------|
E|--------------------------------------------------------------------------|

e|-13-13-13----17-17--15--13----17-17-17---15--17--15--13-------------------|
B|--------------------------------------------------------------------------|
G|--------------------------------------------------------------------------|
D|--------------------------------------------------------------------------|
A|--------------------------------------------------------------------------|
E|--------------------------------------------------------------------------|

e|-13-13-13----17-17--15--13----17-17-17------21-21-21----------------------|
B|--------------------------------------------------------------------------|
G|--------------------------------------------------------------------------|
D|--------------------------------------------------------------------------|
A|--------------------------------------------------------------------------|
E|--------------------------------------------------------------------------|

e|-13-13-13----17-17--15--13----18-18-18-------20------21-------------------|
B|------------------------------------------20------22----------------------|
G|--------------------------------------------------------------------------|
D|--------------------------------------------------------------------------|
A|--------------------------------------------------------------------------|
E|--------------------------------------------------------------------------|

Rhythm:
(palm muting power chords)
Not putting up how many times you strum it that should be obvious by listening to it
e|--------------------------------------------------------------------------|
B|--------------------------------------------------------------------------|
G|--------------------------------------------------------------------------|
D|---7-------10-------3-----5-----------------------------------------------|
A|---5-------8--------1-----3------7----------------------------------------|
E|---------------------------------5----------------------------------------|
 
 
Свернуть Распечатать

Видео