Песни из мюзиклов - Марш тореадоров (из оперы "Кармен"), аккорды

Прокрутка
Тональность
Шрифт
100
E|-------------------|--------------------|--------------------|
B|-1----3---1--------|--------------------|-----------1--------|
G|------------2----2-|-2---0-2---3-2------|--3----0-----2------|
D|-3----------3------|-3-----------3------|-------------3----2-|
A|------3----------3-|-------3----------3-|-------3------------|
E|-------------------|--------------------|--3-----------------|

E|-------------------|--------------------|--------------------|
B|-------------------|------------3--1----|--------------------|
G|----------0--------|-0-------0--------3-|-2--0--2--3--2------|
D|-3----0------------|--------------------|-3-----0-----3----0-|
A|-5----------3----3-|-1-------1----------|--------------------|
E|------3------------|-----3---------3----|--------------------|

E|-------------------|-0----------------|----------------------|
B|-----------------0-|------------------|-----3--2--3----------|
G|------2----2--1----|------------------|--------------0--2--3-|
D|-2-----------------|------2-----------|----------------------|
A|-0----3----2-------|-0---------4----0-|--1-----------1-------|
E|--------------0----|------------------|--------3-----------3-|

E|-------------------|--------------------|------------------|
B|----------3--1-----|--------------------|------------------|
G|----2--------------|----------3--2----0-|------------------|
D|-------3-----------|----3---------------|--3-------------3-|
A|-------3---------3-|-------3----------3-|-------3p-0--3----|
E|-1-----------1-----|-1-----------1------|--1---------------|
 
 
Свернуть Распечатать

Видео