Песни у костра - Москвичи (Сережка с Малой Бронной и Витька с Моховой), аккорды

Прокрутка
Тональность
Шрифт
100
Соло:
E|-------------------------------------------------------|
B|-------------------------------------------------------|
G|-----------------------------2-------------------------|
D|---0-2-3-0-2-2-0---0-2---0-----0-2-3-0-2-2-0---0-2-----|
A|-0---------------4-----4-----0---------------4-----4---|
E--------------------------------------------------------|

E|-------------------------------------------------------|
B|-------------------------------------------------------|
G|---3-2-0---------2-0-----------------------------------|
D|-0-------0-2-2-------3---0-----0-2-3-0-2-2-0---0-2---0-|
A|---3-------3-----------------0---------------4-----4---|
E|------------------------------------------------------|

     Dm            E7
В полях за Вислой сонной
   A7            Dm
Лежат в земле сырой
   Dm             E7
Сережка с Малой Бронной
   A7           D7
И Витька с Моховой.
    Gm             C7
А где-то в людном мире
   F            Bb
Который год подряд
   Dm              E
Одни в пустой квартире
    A          Dm
Их матери не спят.

Проигрыш:
     Dm      E7    A7      Dm
E|---------------------------|
B|---------------------------|
G|---------------------------|
D|---0-2-3-0-2-2-0---0-2---0-|
A|-0---------------4-----4---|
E|---------------------------|

     Dm            E7
Свет лампы воспаленной
   A7           Dm
Пылает над Москвой
     Dm            E7
В окне на Малой Бронной,
   A7           D7
В окне на Моховой.
    Gm             C7
Друзьям не встать. В округе
   F            Bb
Без них идет кино,
   Dm              E
Девчонки - их подруги
    A          Dm
Все замужем давно.

Проигрыш:
     Dm      E7    A7      Dm    Dm      E7    A7      D7
E--------------------------------------------------------|
H--------------------------------------------------------|
G--------------------------2-----------------------------|
D|---0-2-3-0-2-2-0---0-2---0-----0-2-3-0-2-2-0---0-2-----|
A|-0---------------4-----4-----0---------------4-----4---|
E--------------------------------------------------------|

     Dm            E7
В полях за Вислой сонной
   A7            Dm
Лежат в земле сырой
   Dm             E7
Сережка с Малой Бронной
   A7           D7
И Витька с Моховой.
   Dm             E7
Сережка с Малой Бронной
   A7           D7
И Витька с Моховой.

Комментарий автора:

Слова Е. Винокурова.
Музыка А. Эшпая.
 
 
Свернуть Распечатать

Видео