Песни у костра - Груз 200, аккорды

Прокрутка
Тональность
Шрифт
100
  |----------0----------------0---------|
  |------1-------1--------1-------1-----|
  |----2---2---2---2----2---2---2---2---|
  |-------2-----------------------------|
  |--0----------------------------------|
  |-------------------------------------|
  Самолет пасть открыл для посадки своих

  |----------1----------------1---------|
  |------3-------3--------3-------3-----|
  |----2---2---2---2----2---2---2---2---|
  |--0----------------------------------|
  |-------0-----------------------------|
  |-------------------------------------|
  пассажиров,

  |----------1----------------1---------|
  |------1-------1--------1-------1-----|
  |----2---2---2---2----2---2---2---2---|
  |-------3-----------------------------|
  |--3----------------------------------|
  |-------------------------------------|
  но сегодня лечу я один,

  |----------0----------------0---------|
  |------0-------0--------1-------1-----|
  |----1---1---1---1----1---1---1---1---|
  |--2----------------------------------|
  |-------2-----------------------------|
  |-------------------------------------|
  и так тесно вдруг мне.

  |----------0----------------0---------|
  |------1-------1--------1-------1-----|
  |----2---2---2---2----2---2---2---2---|
  |-------2-----------------------------|
  |--0----------------------------------|
  |-------------------------------------|
  Прислонюсь я щекой к холодеющей линзе

  |----------1----------------1---------|
  |------3-------3--------3-------3-----|
  |----2---2---2---2----2---2---2---2---|
  |--0----------------------------------|
  |-------0-----------------------------|
  |-------------------------------------|
  окошка.

  |----------1----------------1---------|
  |------1-------1--------1-------1-----|
  |----2---2---2---2----2---2---2---2---|
  |-------3-----------------------------|
  |--3----------------------------------|
  |-------------------------------------|
  Груз заносится мой,

  |----------0----------------0---------|
  |------0-------0--------1-------1-----|
  |----1---1---1---1----1---1---1---1---|
  |--2----------------------------------|
  |-------2-----------------------------|
  |-------------------------------------|
  и мороз пробежал по спине.

Припев:
       (Играется боем до звездочки,
       после звездочки идет такой:- -     |--------0------|
       перебор, только аккорды            |----0-------0--|
       указанные подставить надо)     - ->|--0---0---0---0|
                                          |0--------------|
                                          |---------------|
         F            G     Am  Am        |---------------|
       Вот         мы      вместе
         F        G        Am   Am
       Один    на двоих   самолет.
         F           G       Am Am
       Груз         мой  -  200,
         F           G      Am  Am
       Твой    прощальный   полет.

2-ой куплет:
  |----------0----------------0---------|
  |------1-------1--------1-------1-----|
  |----2---2---2---2----2---2---2---2---|
  |-------2-----------------------------|
  |--0----------------------------------|
  |-------------------------------------|
  Я сжимаю в руке накладную, 

  |----------1----------------1---------|
  |------3-------3--------3-------3-----|
  |----2---2---2---2----2---2---2---2---|
  |--0----------------------------------|
  |-------0-----------------------------|
  |-------------------------------------|
  Как пропуск к несчастью,

  |----------1----------------1---------|
  |------1-------1--------1-------1-----|
  |----2---2---2---2----2---2---2---2---|
  |-------3-----------------------------|
  |--3----------------------------------|
  |-------------------------------------|
  И как хочется смять 

  |----------0----------------0---------|
  |------0-------0--------1-------1-----|
  |----1---1---1---1----1---1---1---1---|
  |--2----------------------------------|
  |-------2-----------------------------|
  |-------------------------------------|
  Этот страшный, зеленый листок

  |----------0----------------0---------|
  |------1-------1--------1-------1-----|
  |----2---2---2---2----2---2---2---2---|
  |-------2-----------------------------|
  |--0----------------------------------|
  |-------------------------------------|
  Закружились винты, 

  |----------1----------------1---------|
  |------3-------3--------3-------3-----|
  |----2---2---2---2----2---2---2---2---|
  |--0----------------------------------|
  |-------0-----------------------------|
  |-------------------------------------|
  Побежала под нами бетонка.

  |----------1----------------1---------|
  |------1-------1--------1-------1-----|
  |----2---2---2---2----2---2---2---2---|
  |-------3-----------------------------|
  |--3----------------------------------|
  |-------------------------------------|
  Вот и все полетели 

  |----------0----------------0---------|
  |------0-------0--------1-------1-----|
  |----1---1---1---1----1---1---1---1---|
  |--2----------------------------------|
  |-------2-----------------------------|
  |-------------------------------------|
  До дома браток.

3-й куплет:
  |----------0----------------0---------|
  |------1-------1--------1-------1-----|
  |----2---2---2---2----2---2---2---2---|
  |-------2-----------------------------|
  |--0----------------------------------|
  |-------------------------------------|
  Пробегают под нами седые 

  |----------1----------------1---------|
  |------3-------3--------3-------3-----|
  |----2---2---2---2----2---2---2---2---|
  |--0----------------------------------|
  |-------0-----------------------------|
  |-------------------------------------|
  Афганские горы,

  |----------1----------------1---------|
  |------1-------1--------1-------1-----|
  |----2---2---2---2----2---2---2---2---|
  |-------3-----------------------------|
  |--3----------------------------------|
  |-------------------------------------|
  На них зла не держу, 

  |----------0----------------0---------|
  |------0-------0--------1-------1-----|
  |----1---1---1---1----1---1---1---1---|
  |--2----------------------------------|
  |-------2-----------------------------|
  |-------------------------------------|
  Но будь проклята эта война.

  |----------0----------------0---------|
  |------1-------1--------1-------1-----|
  |----2---2---2---2----2---2---2---2---|
  |-------2-----------------------------|
  |--0----------------------------------|
  |-------------------------------------|
  Приземлившись в России 

  |----------1----------------1---------|
  |------3-------3--------3-------3-----|
  |----2---2---2---2----2---2---2---2---|
  |--0----------------------------------|
  |-------0-----------------------------|
  |-------------------------------------|
  Тихонько шепну своей ноше:

  |----------1----------------1---------|
  |------1-------1--------1-------1-----|
  |----2---2---2---2----2---2---2---2---|
  |-------3-----------------------------|
  |--3----------------------------------|
  |-------------------------------------|
  "Сашка, друг, тебя же 

  |----------0----------------0---------|
  |------0-------0--------1-------1-----|
  |----1---1---1---1----1---1---1---1---|
  |--2----------------------------------|
  |-------2-----------------------------|
  |-------------------------------------|
  Встречает весна."

В конце:
         F            G     Am  Am  
       Вот         мы      вместе
         F        G        Am   Am
       Один    на двоих   самолет.
         F           G       Am Am
       Груз         мой  -  200,
         F           G      Am  Am
       Твой    прощальный   полет.
 
 
Свернуть Распечатать

Видео