Песни у костра - Встань, сынок, аккорды

Прокрутка
Тональность
Шрифт
100
Вступление и Куплет:
Am      B7    Em  Am     B7    Em   Am    B7   Dm  E7  Am B7 Em
|---------------------|----------------------------------------|
|-5-5-5-4-5-7-0-------|-5-5-5-4-5-7------5-6-5---------5-------|
|---------------------|--5-5-5-4-4---------7-7-----------------|
|---------------------|-------------7-5---------------7-5--4---|
Для куплета повторить два раза.

Am      B7     Em  Am             B7     Em
Дорога мимо бежит, в груди так сильно болит,
Am         B        Dm        E7      Am    B  Em
Совсем не так давно тебя водил пацаном в ки--но.
Am     B7       Em   Am           B7      Em
А молодой лейтенант все песни пел про десант.
Am         B7         Dm            E7           Am    B7 Em
Ты гордый был такой, мы в первый раз по сто грам с тоб--ой.

Припев:
  Am        Em        Am      B7  Em
|-5--3-2-0--5-3--2-0--5-3-2-0---2>7-|
|-----------------------------4-----|

  Am        Em        Am      B7  Em
|-5--3-2-0--5-3--2-0--5-3-2-0----2-0-|
|-----------------------------4------|

            Am             Em
         Встань сыночек, встань мой родной,
         Am        B7    Em
         я приехал за тобой.
           Am              Em
         Встань сыночек, встань мой родной,
           Am         B7   Em
         Мамка ждет тебя домой

Am      B7     Em  Am           B7  Em
А помниш велосипед купил я первый тебе,
Am         B        Dm        E7      Am    B  Em
Ты так его  хотел, разбил каленку но боль стерпел.
Am     B7       Em   Am           B7     Em
А Светка все еще ждет, она нет-нет да зайдет,
Am         B7         Dm            E7 Am B7 Em
Люблю все говорит, еще не знает что ты убит.

Припев:
  Am        Em        Am      B7  Em
|-5--3-2-0--5-3--2-0--5-3-2-0---2>7-|
|-----------------------------4-----|

  Am        Em        Am      B7  Em
|-5--3-2-0--5-3--2-0--5-3-2-0----2-0-|
|-----------------------------4------|

            Am             Em
         Встань сыночек, встань мой родной,
         Am        B7    Em
         я приехал за тобой.
           Am              Em
         Встань сыночек, встань мой родной,
           Am         B7   Em
         Мамка ждет тебя домой

Am      B7     Em  Am             B7     Em
В четыре тридцать утра ты будиш, папка пора,
Am         B        Dm        E7      Am B Em
Сам меньше удочки я помню все было как вчера.
Am     B7       Em   Am           B7      Em
Да где же тот генерал, что всех на смерть вас послал,
Am         B7         Dm            E7        Am B7 Em
В глаза бы посмотрел... Ты что ж сыночек так поседел?

Припев:
  Am        Em        Am      B7  Em
|-5--3-2-0--5-3--2-0--5-3-2-0---2>7-|
|-----------------------------4-----|

  Am        Em        Am      B7  Em
|-5--3-2-0--5-3--2-0--5-3-2-0----2-0-|
|-----------------------------4------|

            Am             Em
       Встань сыночек встань мой родной,
         Am        B7    Em
       Что же ты такой седой?
            Am             Em
       В стань сыночек, встань мой родной,
         Am        B7    Em
       Мамка ждет тебя домой.

Комментарий автора:

Эту песню следует исполнять медленно, с чувством.
Просьба: исполняя ее вспомните о ребятах которые не вернулись с поля боя к свои
матерям, женам, детям.
 
 
Свернуть Распечатать

Видео