Песни у костра - Игла, аккорды

Прокрутка
Тональность
Шрифт
100
Вступление:
        Em              C              Am           D
--------0---------------0-------------0-------------2-----                        
------0---0-----------1---1---------1---1---------3---3---                     
----0-------0-------0-------0-----2-------2-----2-------2-                  
--2---------------2-------------2-------------0-----------                
--2---------------3-------------0-------------0-----------                
----------------------------------------------------------

        C                G7             Am           Em 
-------0-------------------------------0-------------------
-----1---1--------------0------------1---1-----------0-----
---0-------0----------0---0--------2-------2-------0---0---
-2------------------0-------0----2---------------2-------2-
-3----------------2--------------0-------------2-----------
------------------3----------------------------0-----------

Куплет 1:
   Em             C   
   Ветер не дует лес не шумит
   Am                 D   
   Сердце не бьется оно как гранит
        C              G7
   В руке моей шприц игла как струна 
    Am                    Em
   Играет на нервах, жить дальше нельзя

Куплет 2:
   Em             C   
   И снова укол этот делаю в вену
   Am                 D   
   И теплый раствор превращается в пену
        C              G7
   Проносится волнами в теле моем
    Am                    Em
   И сердце сгорает холодным огнем

Проигрыш:
        Em              C              Am           D
--------0---------------0-------------0-------------2-----                        
------0---0-----------1---1---------1---1---------3---3---                     
----0-------0-------0-------0-----2-------2-----2-------2-                  
--2---------------2-------------2-------------0-----------                
--2---------------3-------------0-------------0-----------                
----------------------------------------------------------

        C                G7             Am           Em 
-------0-------------------------------0-------------------
-----1---1--------------0------------1---1-----------0-----
---0-------0----------0---0--------2-------2-------0---0---
-2------------------0-------0----2---------------2-------2-
-3----------------2--------------0-------------2-----------
------------------3----------------------------0-----------

Куплет 3:
   Em             C   
   Я онемел не могу говорить 
   Am                 D   
   что тебя больше не хочу я любить
        C              G7
   Как мы гуляли не хочу вспоминать
    Am                    Em
   Оставьте меня я буду умирать