Песни у костра - Напиши мне, аккорды

Прокрутка
Тональность
Шрифт
100
Вступление: 
1|----------------------------1---------1----------------1------ 
2|-----1-----1----0---------------0/1-------1-------0-------0--- 
3|---2--2--2--2--2--2---0-------2-----2---2---2---2---2---0---0- 
4|-2------3-----0-----2---2-0-2---------3-------0--------2------

Куплет: 
1|-----------------------0/1/0------------ 
2|-----0/1-------1--------------------0--- 
3|---2-----2---2---2---2--------2---0---0- 
4|-2---------3-------0-------------2------

Ты попроще слова найди
И пожалуйста напиши
Как шумят за окном дожди
И ноябрь в проводах звонит

Припев:
1|-----------------------0/1/0------------ 
2|-----0/1-------1--------------------0--- 
3|---2-----2---2---2---2--------2---0---0- 
4|-2---------3-------0-------------2------

Напиши мне, что ночь темна
Что устала ты слушать дождь
Напиши мне, что ты одна
Напиши мне, что очень ждешь

Проигрыш между припевом и куплетом: 
1|----------------------------1----------1----------------1------- 
2|-----1-----1-----0--------------0/1--------1-------0--------0--- 
3|---2--2--2--2--2--2--0--------2------2---2---2---2---2----0---0- 
4|-2------3-----0-----2---2-0-2----------3--------0-------2-------

Куплет:
1|-----------------------0/1/0------------ 
2|-----0/1-------1--------------------0--- 
3|---2-----2---2---2---2--------2---0---0- 
4|-2---------3-------0-------------2------

А с деревьев листва летит
Как бесшумный ночной десант
Этой ночью опять не спит
И грустит о тебе солдат

Припев:
1|-----------------------0/1/0------------ 
2|-----0/1-------1--------------------0--- 
3|---2-----2---2---2---2--------2---0---0- 
4|-2---------3-------0-------------2------

Напиши мне, что ночь темна
Что устала ты слушать дождь
Напиши мне, что ты одна
Напиши мне, что очень ждешь

Проигрыш между припевом и куплетом: 
1|----------------------------1----------1----------------1------- 
2|-----1-----1-----0--------------0/1--------1-------0--------0--- 
3|---2--2--2--2--2--2--0--------2------2---2---2---2---2----0---0- 
4|-2------3-----0-----2---2-0-2----------3--------0-------2-------

Куплет: 
1|-----------------------0/1/0------------ 
2|-----0/1-------1--------------------0--- 
3|---2-----2---2---2---2--------2---0---0- 
4|-2---------3-------0-------------2------

Эта ночь говорит за нас
Под оркестр водосточных труб
Мне твоих не хватает глаз
Мне твоих не нватает губ

Надоел полумрак казарм
Очень трудно смирится с ним
Мне б вернуться к губам твоим
Мне б вернуться к глазам твоим

Припев:
1|-----------------------0/1/0------------ 
2|-----0/1-------1--------------------0--- 
3|---2-----2---2---2---2--------2---0---0- 
4|-2---------3-------0-------------2------

Напиши мне, что ночь темна
Что устала ты слушать дождь
Напиши мне, что ты одна
Напиши мне, что очень ждешь
 
 
Свернуть Распечатать

Видео