Phil Collins - Another Day In Paradise, аккорды

Прокрутка
Тональность
Шрифт
100
Каподастр на 3-м ладу

Вступление: Dsus2 Dm Am D7sus4

  Dm7       C  Dm Dm7       C   Gm7
e|-4--4-6-4—3-1-1--4--4-6-4—3-1----
b|-------------4---------------4-2-
g|--------------------------------- x2
d|---------------------------------
a|---------------------------------
e|---------------------------------

Dm7                    C            Gm7
She calls out to the man on the street:
Dm7            C
Sir, can you help me
Dm7                  C           Gm7
It is cold and I'm nowhere to sleep,
 Dm7                       C
There's somewhere you can tell me

Dm7                    C     Gm7
He walks on, doesn't look back,
Dm7                    C            
He pretends he can't hear her.
Dm7                    C            Gm7
Starts to whistle as he crosses the street,
Dm7                    C            
Seems embarrassed to be there...

Dm        D7sus2
Oh, think twice,
      Gm7                         D7sus2        
It's another day for you and me in paradise.
Dm        D7sus2
Oh, think twice,
           Gm7                   C     Dm     C A# Dm7
It's just another day for you, you and me in paradise.

Проигрыш:
  Dm7       C  Dm Dm7       C   Gm7
e|-4--4-6-4—3-1-1--4--4-6-4—3-1----
b|-------------4---------------4-2-
g|--------------------------------- }x2
d|---------------------------------
a|---------------------------------
e|---------------------------------

Dm7                    C            Gm7
She calls out to the man on the street:
Dm7                    C            
He can see she's been crying,
Dm7                    C            Gm7
She's got blisters on the soles of her feet,
Dm7                    C            
She can't walk, but she's trying 

Dm        D7sus2
Oh, think twice,
      Gm7                         D7sus2        
It's another day for you and me in paradise.
Dm        D7sus2
Oh, think twice,
           Gm7                   C     Dm     C A# Dm7
It's just another day for you, you and me in paradise.

Проигрыш:
  Dm7       C  Dm Dm7       C   Gm7
e|-4--4-6-4—3-1-1--4--4-6-4—3-1----
b|-------------4---------------4-2-
g|--------------------------------- }x2
d|---------------------------------
a|---------------------------------
e|---------------------------------

Em+5    Dm             C                  F
Oh, Lord, is there nothing more anybody can Do
Em+5  Dm                  C                 F
Oh, Lord, there must be something you can say   

Dm7                    C            Gm7
You can tell from the lines on her face,
Dm7                    C            
You can see that she's been there,
Dm7                    C            Gm7
Probably been moved on from every place,
Dm7                    C            
'Cause she didn't fit in there...

Dm        D7sus2
Oh, think twice,
      Gm7                         D7sus2        
It's another day for you and me in paradise.
Dm        D7sus2
Oh, think twice,
           Gm7                   C     Dm     C A# Dm7
It's just another day for you, you and me in paradise.

Заключение:
  Dm7       C  Dm Dm7       C   Gm7
e|-4--4-6-4—3-1-1--4--4-6-4—3-1----
b|-------------4---------------4-2-
g|--------------------------------- x8
d|---------------------------------
a|---------------------------------
e|---------------------------------
 
 
Свернуть Распечатать

Видео