Пилот - Рок, аккорды

Прокрутка
Тональность
Шрифт
100
Intro: A5 A5 *   

Соло (1):
1|--3-5-0------3-5-3---0-3-5-7-5--7-10-12--
2|--------3-5------------------------------ x2
3|-----------------------------------------

Am
Пересекая магистрали страны,
Am
запоминая номера дорог,
Am
мы, считая столбы,
Am
не заметили как пришел срок;
F
что я сказал свое первое слово
Dm
что я спел свою первую песню
    F             E                Am
что нет конца Силе, и нет дороги домой.

Припев:
    F
Ни тень под глазами, ни хилые нервы,
     Dm             E               Am
ни траурный марш забывших дорогу домой,

Соло (2): играется через каждые 2 строчки припева
1|-7-10-7-5-3-1-0-1-3-5-0-|
                             
F
не ранят навылет как пуля,
Dm    E          Am
как дождь над Невой. 

Соло (2): 
1|-7-10-7-5-3-1-0-1-3-5-0-|

F
И кто-то говорит мне, что я - дьявол!
Dm    E          Am
Кто-то говорит, что я пророк! 

Соло (2): 
1|-7-10-7-5-3-1-0-1-3-5-0-|

F
Но я не собираюсь спорить с вами,
Dm    E          Am
Я просто играю рок!

Соло (1):
1|--3-5-0------3-5-3---0-3-5-7-5--7-10-12--
2|--------3-5------------------------------ x2
3|-----------------------------------------
 
Am
Вспоминали голос ветра,
Am
зовущий нас в глубину небес,
Am
и крики птиц, и стук в окно,
Am
предначертания чудес.
F
Теряя перья в этой войне,
Dm
Задать вопрос самому себе:
    F             E              Am
"когда обратно?" И не услышать ответ. 

Припев:
    F
Ни тень под глазами, ни хилые нервы,
     Dm             E               Am
ни траурный марш забывших дорогу домой,

Соло (2): играется через каждые 2 строчки припева
1|-7-10-7-5-3-1-0-1-3-5-0-|
                             
F
не ранят навылет как пуля,
Dm    E          Am
как дождь над Невой. 

Соло (2): 
1|-7-10-7-5-3-1-0-1-3-5-0-|

F
И кто-то говорит мне, что я - дьявол!
Dm    E          Am
Кто-то говорит, что я пророк! 

Соло (2): 
1|-7-10-7-5-3-1-0-1-3-5-0-|

F
Но я не собираюсь спорить с вами,
Dm    E          Am
Я просто играю рок!

Соло (1):
1|--3-5-0------3-5-3---0-3-5-7-5--7-10-12--
2|--------3-5------------------------------ x2
3|-----------------------------------------

Соло (3):
1|--3-5-0------3-5-3---0-3-5---7-0-----
2|--------3-5-------------------------- x2
3|-------------------------------------

Am
Подскажет память имя,
Am
И то, зачем ты пришел,
Am
Открой свой рот,
Am
Открой глаза, ты все нашел!
F
и ты сказал свое последнее слово,
Dm
и ты спел последнюю песню,
    F             E              Am
кончились силы, и ты вернулся домой.

Припев:
    F
Ни тень под глазами, ни хилые нервы,
     Dm             E               Am
ни траурный марш забывших дорогу домой,

Соло (2): играется через каждые 2 строчки припева
1|-7-10-7-5-3-1-0-1-3-5-0-|
                             
F
не ранят навылет как пуля,
Dm    E          Am
как дождь над Невой. 

Соло (2): 
1|-7-10-7-5-3-1-0-1-3-5-0-|

F
И кто-то говорит мне, что я - дьявол!
Dm    E          Am
Кто-то говорит, что я пророк! 

Соло (2): 
1|-7-10-7-5-3-1-0-1-3-5-0-|

F
Но я не собираюсь спорить с вами,
Dm    E          Am
Я просто играю рок!

Соло (1):
1|--3-5-0------3-5-3---0-3-5-7-5--7-10-12--
2|--------3-5------------------------------ x2
3|-----------------------------------------

Outro: A5 A5 *   

Соло (1):
1|--3-5-0------3-5-3---0-3-5-7-5--7-10-12--
2|--------3-5------------------------------ x2
3|-----------------------------------------

Комментарий автора:

A5: 555775
A5 *: 555555
 
 

Видео