Plankeye - Power, аккорды

Прокрутка
Тональность
Шрифт
100
Author/Artist: Plank Eye
Title: Power
Album: Spill
Transcribed by: Kyle Tucker
Email: jefr@totacc.com

Intro and verse(if you choose to play it during the verse)
g------------------------------------------------------------------------------
d------------------------------------------------------------------------------
a----3---3---3-45----3---3---3-------------------------------------------------
e-22---2---2------22---2---2---33----------------------------------------------
 
Chourus                                                                      


g------------------------------------------------------------------------------
d------------------------------------------------------------------------------
a-------5----------------------------------------------------------------------
e-2-2-2---2-2-2-0--------------------------------------------------------------
                                                                              
Verse(if intro solo is not being played)

g------------------------------------------------------------------------------
d------------------------------------------------------------------------------
a------------------------------------------------------------------------------
e-2-2-5-5-7-7-2-2-5-5-7-875----------------------------------------------------