Police - Every Breath You Take, аккорды новинка

Прокрутка
Тональность
Шрифт
100
Intro :
   Gadd9                               Emadd9
E|-----------------|-----------------|-----------------|-----------------|
B|---------0-------|---------0-------|-----------------|-----------------|
G|-----2-----2---2-|-----2-----2---2-|---------0-------|---------0-------|
D|---0---0-----0---|---0---0-----0---|-----4-----4---4-|-----4-----4---4-|
A|-----------------|-----------------|---2---2-----2---|---2---2-----2---|
E|-3---------------|-3---------------|-0---------------|-0---------------| 

   Csus2             Dsus2
e|-----------------|-----------------|-----------------|-----------------|
B|-----3-----------|-----5-----------|---------0-------|---------0-------|
G|---------5-------|---------7-----7-|-----2-----2---2-|-----2-----2---2-|
D|---5---5---5---5-|---7---7---7-----|---0---0-----0---|---0---0-----0---|
A|-3-----------3---|-5-----------5---|-----------------|-----------------|
E|-----------------|-----------------|-3---------------|-3---------------|

                 G6  G6
Every breath you take
               Em  Em
Every move you make
               C
Every bond you break
               Dsus2
Every step you take
                 Em  Em
I'll be watching you

            G6  G6
Every single day
               Em  Em
Every word you say
               C
Every game you play
                Dsus2
Every night you stay
                 G6  G6
I'll be watching you

Chorus:
             C C 
Oh can't you see
              G6 G6
You belong to me
                  Asus2 Asus2
How my poor heart aches
                    Dsus2 Dsus2
With every step you take

               G6  G6
Every move you make
             Em  Em
Every vow you break
                Csus2
Every smile you fake
                 Dsus2
Every claim you stake
                   Em Em
I'll be watching you

Pont:
D#5                          D#            (F)
Since you've gone I've been lost without a trace
F                       F            (D#5)
I dream at night, I can only see your face
D#5                    D#5           (F)
I look around but it's you I can't replace
F                    F              (D#5)
I feel so cold and I long for your embrace
               D#5       (Gadd9)     
I keep calling baby, baby please...

Gadd9 Gadd9 Emadd9 Emadd9    |
Csus2 Dsus2 Emadd9 Emadd9    | See intro
Gadd9 Gadd9 Emadd Emadd9     | for arpeggios
Csus2 Dsus2 Gadd9 Gadd9      |

Chorus:
             C C 
Oh can't you see
              G6 G6
You belong to me
                  Asus2 Asus2
How my poor heart aches
                    Dsus2 Dsus2
With every step you take

               G6 G6
Every move you make
              Em  Em
Every vow you break
                Csus2
Every smile you fake
                 Dsus2
Every claim you stake
                  Em Em
I'll be watching you
               Csus2
Every move you make
                Dsus2
Every step you take
                 Em Em Em Em
I'll be watching you

Outro:
                G6 G6 Em Csus2
I'll be watching you
                G6 G6 Em Csus2
I'll be watching you (fade out)

Комментарий автора:

F - xx321x или xx3211
D# - xx654x или xx6544
 
 
Свернуть Распечатать

Видео